  0
SECTION
  2
HEADER
  9
$ACADVER
  1
AC1027
  9
$ACADMAINTVER
 70
   125
  9
$DWGCODEPAGE
  3
ANSI_1252
  9
$REQUIREDVERSIONS
160
                 0
  9
$INSBASE
 10
0.0
 20
0.0
 30
0.0
  9
$EXTMIN
 10
-0.0000000000000011
 20
-0.0000000000001621
 30
-12.0
  9
$EXTMAX
 10
45.00000000000034
 20
45.00000000000026
 30
3.789586489848099
  9
$LIMMIN
 10
0.0
 20
0.0
  9
$LIMMAX
 10
12.0
 20
9.0
  9
$ORTHOMODE
 70
     0
  9
$REGENMODE
 70
     1
  9
$FILLMODE
 70
     1
  9
$QTEXTMODE
 70
     0
  9
$MIRRTEXT
 70
     0
  9
$LTSCALE
 40
1.0
  9
$ATTMODE
 70
     1
  9
$TEXTSIZE
 40
0.2
  9
$TRACEWID
 40
0.05
  9
$TEXTSTYLE
  7
Standard
  9
$CLAYER
  8
0
  9
$CELTYPE
  6
ByLayer
  9
$CECOLOR
 62
   256
  9
$CELTSCALE
 40
1.0
  9
$DISPSILH
 70
     0
  9
$DIMSCALE
 40
1.0
  9
$DIMASZ
 40
0.18
  9
$DIMEXO
 40
0.0625
  9
$DIMDLI
 40
0.38
  9
$DIMRND
 40
0.0
  9
$DIMDLE
 40
0.0
  9
$DIMEXE
 40
0.18
  9
$DIMTP
 40
0.0
  9
$DIMTM
 40
0.0
  9
$DIMTXT
 40
0.18
  9
$DIMCEN
 40
0.09
  9
$DIMTSZ
 40
0.0
  9
$DIMTOL
 70
     0
  9
$DIMLIM
 70
     0
  9
$DIMTIH
 70
     1
  9
$DIMTOH
 70
     1
  9
$DIMSE1
 70
     0
  9
$DIMSE2
 70
     0
  9
$DIMTAD
 70
     0
  9
$DIMZIN
 70
     0
  9
$DIMBLK
  1

  9
$DIMASO
 70
     1
  9
$DIMSHO
 70
     1
  9
$DIMPOST
  1

  9
$DIMAPOST
  1

  9
$DIMALT
 70
     0
  9
$DIMALTD
 70
     2
  9
$DIMALTF
 40
25.4
  9
$DIMLFAC
 40
1.0
  9
$DIMTOFL
 70
     0
  9
$DIMTVP
 40
0.0
  9
$DIMTIX
 70
     0
  9
$DIMSOXD
 70
     0
  9
$DIMSAH
 70
     0
  9
$DIMBLK1
  1

  9
$DIMBLK2
  1

  9
$DIMSTYLE
  2
Standard
  9
$DIMCLRD
 70
     0
  9
$DIMCLRE
 70
     0
  9
$DIMCLRT
 70
     0
  9
$DIMTFAC
 40
1.0
  9
$DIMGAP
 40
0.09
  9
$DIMJUST
 70
     0
  9
$DIMSD1
 70
     0
  9
$DIMSD2
 70
     0
  9
$DIMTOLJ
 70
     1
  9
$DIMTZIN
 70
     0
  9
$DIMALTZ
 70
     0
  9
$DIMALTTZ
 70
     0
  9
$DIMUPT
 70
     0
  9
$DIMDEC
 70
     4
  9
$DIMTDEC
 70
     4
  9
$DIMALTU
 70
     2
  9
$DIMALTTD
 70
     2
  9
$DIMTXSTY
  7
Standard
  9
$DIMAUNIT
 70
     0
  9
$DIMADEC
 70
     0
  9
$DIMALTRND
 40
0.0
  9
$DIMAZIN
 70
     0
  9
$DIMDSEP
 70
    46
  9
$DIMATFIT
 70
     3
  9
$DIMFRAC
 70
     0
  9
$DIMLDRBLK
  1

  9
$DIMLUNIT
 70
     2
  9
$DIMLWD
 70
    -2
  9
$DIMLWE
 70
    -2
  9
$DIMTMOVE
 70
     0
  9
$DIMFXL
 40
1.0
  9
$DIMFXLON
 70
     0
  9
$DIMJOGANG
 40
0.7853981633974483
  9
$DIMTFILL
 70
     0
  9
$DIMTFILLCLR
 70
     0
  9
$DIMARCSYM
 70
     0
  9
$DIMLTYPE
  6

  9
$DIMLTEX1
  6

  9
$DIMLTEX2
  6

  9
$DIMTXTDIRECTION
 70
     0
  9
$LUNITS
 70
     2
  9
$LUPREC
 70
     4
  9
$SKETCHINC
 40
0.1
  9
$FILLETRAD
 40
0.0
  9
$AUNITS
 70
     0
  9
$AUPREC
 70
     0
  9
$MENU
  1
.
  9
$ELEVATION
 40
0.0
  9
$PELEVATION
 40
0.0
  9
$THICKNESS
 40
0.0
  9
$LIMCHECK
 70
     0
  9
$CHAMFERA
 40
0.0
  9
$CHAMFERB
 40
0.0
  9
$CHAMFERC
 40
0.0
  9
$CHAMFERD
 40
0.0
  9
$SKPOLY
 70
     0
  9
$TDCREATE
 40
2459511.637870370
  9
$TDUCREATE
 40
2459511.554537037
  9
$TDUPDATE
 40
2459511.637870370
  9
$TDUUPDATE
 40
2459511.554537037
  9
$TDINDWG
 40
0.0000115741
  9
$TDUSRTIMER
 40
0.0000115741
  9
$USRTIMER
 70
     1
  9
$ANGBASE
 50
0.0
  9
$ANGDIR
 70
     0
  9
$PDMODE
 70
     0
  9
$PDSIZE
 40
0.0
  9
$PLINEWID
 40
0.0
  9
$SPLFRAME
 70
     0
  9
$SPLINETYPE
 70
     6
  9
$SPLINESEGS
 70
     8
  9
$HANDSEED
  5
296
  9
$SURFTAB1
 70
     6
  9
$SURFTAB2
 70
     6
  9
$SURFTYPE
 70
     6
  9
$SURFU
 70
     6
  9
$SURFV
 70
     6
  9
$UCSBASE
  2

  9
$UCSNAME
  2

  9
$UCSORG
 10
0.0
 20
0.0
 30
0.0
  9
$UCSXDIR
 10
1.0
 20
0.0
 30
0.0
  9
$UCSYDIR
 10
0.0
 20
1.0
 30
0.0
  9
$UCSORTHOREF
  2

  9
$UCSORTHOVIEW
 70
     0
  9
$UCSORGTOP
 10
0.0
 20
0.0
 30
0.0
  9
$UCSORGBOTTOM
 10
0.0
 20
0.0
 30
0.0
  9
$UCSORGLEFT
 10
0.0
 20
0.0
 30
0.0
  9
$UCSORGRIGHT
 10
0.0
 20
0.0
 30
0.0
  9
$UCSORGFRONT
 10
0.0
 20
0.0
 30
0.0
  9
$UCSORGBACK
 10
0.0
 20
0.0
 30
0.0
  9
$PUCSBASE
  2

  9
$PUCSNAME
  2

  9
$PUCSORG
 10
0.0
 20
0.0
 30
0.0
  9
$PUCSXDIR
 10
1.0
 20
0.0
 30
0.0
  9
$PUCSYDIR
 10
0.0
 20
1.0
 30
0.0
  9
$PUCSORTHOREF
  2

  9
$PUCSORTHOVIEW
 70
     0
  9
$PUCSORGTOP
 10
0.0
 20
0.0
 30
0.0
  9
$PUCSORGBOTTOM
 10
0.0
 20
0.0
 30
0.0
  9
$PUCSORGLEFT
 10
0.0
 20
0.0
 30
0.0
  9
$PUCSORGRIGHT
 10
0.0
 20
0.0
 30
0.0
  9
$PUCSORGFRONT
 10
0.0
 20
0.0
 30
0.0
  9
$PUCSORGBACK
 10
0.0
 20
0.0
 30
0.0
  9
$USERI1
 70
     0
  9
$USERI2
 70
     0
  9
$USERI3
 70
     0
  9
$USERI4
 70
     0
  9
$USERI5
 70
     0
  9
$USERR1
 40
0.0
  9
$USERR2
 40
0.0
  9
$USERR3
 40
0.0
  9
$USERR4
 40
0.0
  9
$USERR5
 40
0.0
  9
$WORLDVIEW
 70
     1
  9
$SHADEDGE
 70
     3
  9
$SHADEDIF
 70
    70
  9
$TILEMODE
 70
     1
  9
$MAXACTVP
 70
    64
  9
$PINSBASE
 10
0.0
 20
0.0
 30
0.0
  9
$PLIMCHECK
 70
     0
  9
$PEXTMIN
 10
1.000000000000000E+20
 20
1.000000000000000E+20
 30
1.000000000000000E+20
  9
$PEXTMAX
 10
-1.000000000000000E+20
 20
-1.000000000000000E+20
 30
-1.000000000000000E+20
  9
$PLIMMIN
 10
0.0
 20
0.0
  9
$PLIMMAX
 10
12.0
 20
9.0
  9
$UNITMODE
 70
     0
  9
$VISRETAIN
 70
     1
  9
$PLINEGEN
 70
     0
  9
$PSLTSCALE
 70
     1
  9
$TREEDEPTH
 70
  3020
  9
$CMLSTYLE
  2
Standard
  9
$CMLJUST
 70
     0
  9
$CMLSCALE
 40
1.0
  9
$PROXYGRAPHICS
 70
     1
  9
$MEASUREMENT
 70
     1
  9
$CELWEIGHT
370
    -1
  9
$ENDCAPS
280
     0
  9
$JOINSTYLE
280
     0
  9
$LWDISPLAY
290
     0
  9
$INSUNITS
 70
     4
  9
$HYPERLINKBASE
  1

  9
$STYLESHEET
  1

  9
$XEDIT
290
     1
  9
$CEPSNTYPE
380
     0
  9
$PSTYLEMODE
290
     1
  9
$FINGERPRINTGUID
  2
{29AAC21A-27ED-DE45-BC2E-576E38294941}
  9
$VERSIONGUID
  2
{9633EFF8-50D5-C143-8E7F-EBA4EBDDF3C7}
  9
$EXTNAMES
290
     1
  9
$PSVPSCALE
 40
0.0
  9
$OLESTARTUP
290
     0
  9
$SORTENTS
280
   127
  9
$INDEXCTL
280
     0
  9
$HIDETEXT
280
     1
  9
$XCLIPFRAME
280
     2
  9
$HALOGAP
280
     0
  9
$OBSCOLOR
 70
   257
  9
$OBSLTYPE
280
     0
  9
$INTERSECTIONDISPLAY
280
     0
  9
$INTERSECTIONCOLOR
 70
   257
  9
$DIMASSOC
280
     2
  9
$PROJECTNAME
  1

  9
$CAMERADISPLAY
290
     0
  9
$LENSLENGTH
 40
50.0
  9
$CAMERAHEIGHT
 40
0.0
  9
$STEPSPERSEC
 40
2.0
  9
$STEPSIZE
 40
6.0
  9
$3DDWFPREC
 40
2.0
  9
$PSOLWIDTH
 40
0.25
  9
$PSOLHEIGHT
 40
4.0
  9
$LOFTANG1
 40
1.570796326794896
  9
$LOFTANG2
 40
1.570796326794896
  9
$LOFTMAG1
 40
0.0
  9
$LOFTMAG2
 40
0.0
  9
$LOFTPARAM
 70
     7
  9
$LOFTNORMALS
280
     1
  9
$LATITUDE
 40
0.0
  9
$LONGITUDE
 40
0.0
  9
$NORTHDIRECTION
 40
0.0
  9
$TIMEZONE
 70
     0
  9
$LIGHTGLYPHDISPLAY
280
     1
  9
$TILEMODELIGHTSYNCH
280
     1
  9
$CMATERIAL
347
11
  9
$SOLIDHIST
280
     0
  9
$SHOWHIST
280
     1
  9
$DWFFRAME
280
     2
  9
$DGNFRAME
280
     0
  9
$REALWORLDSCALE
290
     1
  9
$INTERFERECOLOR
 62
     1
  9
$INTERFEREOBJVS
345
33
  9
$INTERFEREVPVS
346
30
  9
$CSHADOW
280
     0
  9
$SHADOWPLANELOCATION
 40
0.0
  0
ENDSEC
  0
SECTION
  2
CLASSES
  0
CLASS
  1
ACDBDICTIONARYWDFLT
  2
AcDbDictionaryWithDefault
  3
ObjectDBX Classes
 90
        0
 91
        1
280
     0
281
     0
  0
CLASS
  1
MATERIAL
  2
AcDbMaterial
  3
ObjectDBX Classes
 90
     1153
 91
        4
280
     0
281
     0
  0
CLASS
  1
VISUALSTYLE
  2
AcDbVisualStyle
  3
ObjectDBX Classes
 90
     4095
 91
       25
280
     0
281
     0
  0
CLASS
  1
SCALE
  2
AcDbScale
  3
ObjectDBX Classes
 90
     1153
 91
       17
280
     0
281
     0
  0
CLASS
  1
TABLESTYLE
  2
AcDbTableStyle
  3
ObjectDBX Classes
 90
     4095
 91
        1
280
     0
281
     0
  0
CLASS
  1
MLEADERSTYLE
  2
AcDbMLeaderStyle
  3
ACDB_MLEADERSTYLE_CLASS
 90
     4095
 91
        1
280
     0
281
     0
  0
CLASS
  1
ACDBSECTIONVIEWSTYLE
  2
AcDbSectionViewStyle
  3
ObjectDBX Classes
 90
     1025
 91
        1
280
     0
281
     0
  0
CLASS
  1
ACDBDETAILVIEWSTYLE
  2
AcDbDetailViewStyle
  3
ObjectDBX Classes
 90
     1025
 91
        1
280
     0
281
     0
  0
CLASS
  1
RASTERVARIABLES
  2
AcDbRasterVariables
  3
ISM
 90
        0
 91
        1
280
     0
281
     0
  0
CLASS
  1
DICTIONARYVAR
  2
AcDbDictionaryVar
  3
ObjectDBX Classes
 90
        0
 91
        5
280
     0
281
     0
  0
CLASS
  1
CELLSTYLEMAP
  2
AcDbCellStyleMap
  3
ObjectDBX Classes
 90
     1152
 91
        2
280
     0
281
     0
  0
ENDSEC
  0
SECTION
  2
TABLES
  0
TABLE
  2
VPORT
  5
8
330
0
100
AcDbSymbolTable
 70
     1
1001
ACAD
1000
DbSaveVer
1071
       51
  0
VPORT
  5
57
330
8
100
AcDbSymbolTableRecord
100
AcDbViewportTableRecord
  2
*Active
 70
     0
 10
0.0
 20
0.0
 11
1.0
 21
1.0
 12
22.50000000000017
 22
22.50000000000013
 13
0.0
 23
0.0
 14
1.0
 24
1.0
 15
0.0
 25
0.0
 16
-30.25404864719992
 26
-30.25404864719992
 36
30.25404864719992
 17
22.50000000000017
 27
37.50000000000005
 37
-4.105206755075901
 40
45.00000000000026
 41
1.000000000000001
 42
50.0
 43
0.0
 44
0.0
 50
0.0
 51
0.0
 71
     0
 72
  1000
 73
     1
 74
     1
 75
     0
 76
     0
 77
     0
 78
     0
281
     6
 65
     1
110
0.0
120
0.0
130
0.0
111
1.0
121
0.0
131
0.0
112
0.0
122
1.0
132
0.0
 79
     0
146
0.0
348
285
 60
     3
 61
     5
292
     1
282
     1
141
0.0
142
0.0
 63
   250
421
  3355443
  0
ENDTAB
  0
TABLE
  2
LTYPE
  5
5
330
0
100
AcDbSymbolTable
 70
     1
  0
LTYPE
  5
5B
330
5
100
AcDbSymbolTableRecord
100
AcDbLinetypeTableRecord
  2
ByBlock
 70
     0
  3

 72
    65
 73
     0
 40
0.0
  0
LTYPE
  5
5C
330
5
100
AcDbSymbolTableRecord
100
AcDbLinetypeTableRecord
  2
ByLayer
 70
     0
  3

 72
    65
 73
     0
 40
0.0
  0
LTYPE
  5
5D
330
5
100
AcDbSymbolTableRecord
100
AcDbLinetypeTableRecord
  2
Continuous
 70
     0
  3
Solid line
 72
    65
 73
     0
 40
0.0
  0
ENDTAB
  0
TABLE
  2
LAYER
  5
2
330
0
100
AcDbSymbolTable
 70
     5
  0
LAYER
  5
54
330
2
100
AcDbSymbolTableRecord
100
AcDbLayerTableRecord
  2
0
 70
     0
 62
     7
  6
Continuous
370
    -3
390
F
347
21
348
0
  0
LAYER
  5
89
330
2
100
AcDbSymbolTableRecord
100
AcDbLayerTableRecord
  2
MEFA Bauteil
 70
     0
 62
   253
  6
Continuous
370
    30
390
F
347
21
348
0
  0
LAYER
  5
8F
330
2
100
AcDbSymbolTableRecord
100
AcDbLayerTableRecord
  2
MEFA Allgemeines Mode
 70
     0
 62
   253
  6
Continuous
370
    30
390
F
347
21
348
0
  0
LAYER
  5
91
330
2
100
AcDbSymbolTableRecord
100
AcDbLayerTableRecord
  2
G-IMPT
 70
     0
 62
     8
  6
Continuous
370
    30
390
F
347
21
348
0
  0
ENDTAB
  0
TABLE
  2
STYLE
  5
3
330
0
100
AcDbSymbolTable
 70
     2
  0
STYLE
  5
55
330
3
100
AcDbSymbolTableRecord
100
AcDbTextStyleTableRecord
  2
Standard
 70
     0
 40
0.0
 41
1.0
 50
0.0
 71
     0
 42
0.2
  3
txt
  4

  0
STYLE
  5
5A
330
3
100
AcDbSymbolTableRecord
100
AcDbTextStyleTableRecord
  2
Annotative
 70
     0
 40
0.0
 41
1.0
 50
0.0
 71
     0
 42
0.2
  3
txt
  4

1001
AcadAnnotative
1000
AnnotativeData
1002
{
1070
     1
1070
     1
1002
}
  0
ENDTAB
  0
TABLE
  2
VIEW
  5
6
330
0
100
AcDbSymbolTable
 70
     1
  0
VIEW
  5
286
330
6
100
AcDbSymbolTableRecord
100
AcDbViewTableRecord
  2
Ansicht _1_
 70
     0
 40
200000.0
 10
0.0
 20
0.0
 41
200000.0
 11
-30.25404864719992
 21
-30.25404864719992
 31
30.25404864719992
 12
22.50000000000017
 22
37.50000000000005
 32
-4.105206755075901
 42
50.0
 43
0.0
 44
0.0
 50
0.0
 71
     0
281
     6
 72
     0
 73
     0
348
285
  0
ENDTAB
  0
TABLE
  2
UCS
  5
7
330
0
100
AcDbSymbolTable
 70
     0
  0
ENDTAB
  0
TABLE
  2
APPID
  5
9
330
0
100
AcDbSymbolTable
 70
     3
  0
APPID
  5
56
330
9
100
AcDbSymbolTableRecord
100
AcDbRegAppTableRecord
  2
ACAD
 70
     0
  0
APPID
  5
5E
330
9
100
AcDbSymbolTableRecord
100
AcDbRegAppTableRecord
  2
AcadAnnotative
 70
     0
  0
APPID
  5
78
330
9
100
AcDbSymbolTableRecord
100
AcDbRegAppTableRecord
  2
REVIT
 70
     0
  0
ENDTAB
  0
TABLE
  2
DIMSTYLE
  5
A
330
0
100
AcDbSymbolTable
 70
     2
100
AcDbDimStyleTable
 71
     0
  0
DIMSTYLE
105
58
330
A
100
AcDbSymbolTableRecord
100
AcDbDimStyleTableRecord
  2
Standard
 70
     0
340
55
  0
DIMSTYLE
105
59
330
A
100
AcDbSymbolTableRecord
100
AcDbDimStyleTableRecord
  2
Annotative
 70
     0
340
55
1001
AcadAnnotative
1000
AnnotativeData
1002
{
1070
     1
1070
     1
1002
}
  0
ENDTAB
  0
TABLE
  2
BLOCK_RECORD
  5
1
330
0
100
AcDbSymbolTable
 70
     6
  0
BLOCK_RECORD
  5
70
330
1
100
AcDbSymbolTableRecord
100
AcDbBlockTableRecord
  2
*Model_Space
340
73
 70
     0
280
     1
281
     0
  0
BLOCK_RECORD
  5
6C
330
1
100
AcDbSymbolTableRecord
100
AcDbBlockTableRecord
  2
*Paper_Space
340
6F
 70
     0
280
     1
281
     0
  0
BLOCK_RECORD
  5
74
330
1
100
AcDbSymbolTableRecord
100
AcDbBlockTableRecord
  2
*Paper_Space0
340
77
 70
     0
280
     1
281
     0
  0
BLOCK_RECORD
  5
88
330
1
100
AcDbSymbolTableRecord
100
AcDbBlockTableRecord
  2
FamilienGeomKombination_7403-Ansicht _1_
340
0
102
{BLKREFS
331
8D
102
}
 70
     0
280
     1
281
     0
  0
BLOCK_RECORD
  5
90
330
1
100
AcDbSymbolTableRecord
100
AcDbBlockTableRecord
  2
MEFA Logo Dübel Rot klein_0001 - MEFA Dübel rot_dwg_Schraffur_A0V677HOK2-15011-Ansicht _1_
340
0
102
{BLKREFS
331
279
102
}
 70
     0
280
     1
281
     0
  0
BLOCK_RECORD
  5
99
330
1
100
AcDbSymbolTableRecord
100
AcDbBlockTableRecord
  2
MEFA Logo Dübel Rot klein_0001 - MEFA Dübel rot_dwg_Schraffur_A0V677HPK2-15012-Ansicht _1_
340
0
102
{BLKREFS
331
27A
102
}
 70
     0
280
     1
281
     0
  0
BLOCK_RECORD
  5
228
330
1
100
AcDbSymbolTableRecord
100
AcDbBlockTableRecord
  2
MEFA Logo Dübel Rot klein_0001 - MEFA Dübel rot_dwg-15010-Ansicht _1_
340
0
102
{BLKREFS
331
27E
102
}
 70
     0
280
     1
281
     0
  0
BLOCK_RECORD
  5
27D
330
1
100
AcDbSymbolTableRecord
100
AcDbBlockTableRecord
  2
MEFA Logo Dübel Rot klein_0001 - MEFA Logo Dübel Rot klein_0001-13007-Ansicht _1_
340
0
102
{BLKREFS
331
281
102
}
 70
     0
280
     1
281
     0
  0
ENDTAB
  0
ENDSEC
  0
SECTION
  2
BLOCKS
  0
BLOCK
  5
71
330
70
100
AcDbEntity
  8
0
100
AcDbBlockBegin
  2
*Model_Space
 70
     0
 10
0.0
 20
0.0
 30
0.0
  3
*Model_Space
  1

  0
ENDBLK
  5
72
330
70
100
AcDbEntity
  8
0
100
AcDbBlockEnd
  0
BLOCK
  5
6D
330
6C
100
AcDbEntity
 67
     1
  8
0
100
AcDbBlockBegin
  2
*Paper_Space
 70
     0
 10
0.0
 20
0.0
 30
0.0
  3
*Paper_Space
  1

  0
ENDBLK
  5
6E
330
6C
100
AcDbEntity
 67
     1
  8
0
100
AcDbBlockEnd
  0
BLOCK
  5
75
330
74
100
AcDbEntity
 67
     1
  8
0
100
AcDbBlockBegin
  2
*Paper_Space0
 70
     0
 10
0.0
 20
0.0
 30
0.0
  3
*Paper_Space0
  1

  0
ENDBLK
  5
76
330
74
100
AcDbEntity
 67
     1
  8
0
100
AcDbBlockEnd
  0
BLOCK
  5
8B
330
88
100
AcDbEntity
  8
0
100
AcDbBlockBegin
  2
FamilienGeomKombination_7403-Ansicht _1_
 70
     0
 10
0.0
 20
0.0
 30
0.0
  3
FamilienGeomKombination_7403-Ansicht _1_
  1

  0
3DSOLID
  5
8A
330
88
100
AcDbEntity
  8
MEFA Bauteil
370
    40
100
AcDbModelerGeometry
290
     1
  2
{25de7812-3938-a343-ab22-43718df8a54c}
100
AcDb3dSolid
350
0
1001
REVIT
1002
{
1070
     4
1000
7490
1002
}
1002
{
1070
     2
1000
-2001140
1002
}
  0
ENDBLK
  5
8C
330
88
100
AcDbEntity
  8
0
100
AcDbBlockEnd
  0
BLOCK
  5
97
330
90
100
AcDbEntity
  8
0
100
AcDbBlockBegin
  2
MEFA Logo Dübel Rot klein_0001 - MEFA Dübel rot_dwg_Schraffur_A0V677HOK2-15011-Ansicht _1_
 70
     0
 10
0.0
 20
0.0
 30
0.0
  3
MEFA Logo Dübel Rot klein_0001 - MEFA Dübel rot_dwg_Schraffur_A0V677HOK2-15011-Ansicht _1_
  1

  0
LINE
  5
92
330
90
100
AcDbEntity
  8
G-IMPT
370
    40
100
AcDbLine
 10
110.5376641064376
 20
96.50536218406848
 30
0.0
 11
109.4276934844551
 21
96.50536218406848
 31
0.0
1001
REVIT
1002
{
1070
     3
1000
7518
1002
}
  0
LINE
  5
93
330
90
100
AcDbEntity
  8
G-IMPT
370
    40
100
AcDbLine
 10
109.4276934844551
 20
96.50536218406848
 30
0.0
 11
109.4276934844551
 21
97.32668350807141
 31
0.0
1001
REVIT
1002
{
1070
     3
1000
7518
1002
}
  0
LINE
  5
94
330
90
100
AcDbEntity
  8
G-IMPT
370
    40
100
AcDbLine
 10
109.4276934844551
 20
97.32668350807141
 30
0.0
 11
110.5376641064376
 21
97.32668350807141
 31
0.0
1001
REVIT
1002
{
1070
     3
1000
7518
1002
}
  0
LINE
  5
95
330
90
100
AcDbEntity
  8
G-IMPT
370
    40
100
AcDbLine
 10
110.5376641064376
 20
97.32668350807141
 30
0.0
 11
110.5376641064376
 21
96.50536218406848
 31
0.0
1001
REVIT
1002
{
1070
     3
1000
7518
1002
}
  0
HATCH
  5
96
330
90
100
AcDbEntity
  8
G-IMPT
370
    40
100
AcDbHatch
 10
0.0
 20
0.0
 30
0.0
210
0.0
220
0.0
230
1.0
  2
SOLID
 70
     1
 71
     0
 91
        1
 92
        0
 93
        4
 72
     1
 10
110.5376641064376
 20
96.50536218406848
 11
109.4276934844551
 21
96.50536218406848
 72
     1
 10
109.4276934844551
 20
96.50536218406848
 11
109.4276934844551
 21
97.32668350807141
 72
     1
 10
109.4276934844551
 20
97.32668350807141
 11
110.5376641064376
 21
97.32668350807141
 72
     1
 10
110.5376641064376
 20
97.32668350807141
 11
110.5376641064376
 21
96.50536218406848
 97
        0
 75
     0
 76
     1
 98
        1
 10
0.0
 20
0.0
450
        0
451
        0
460
0.0
461
0.0
452
        0
462
0.0
453
        0
470

1001
REVIT
1002
{
1070
     3
1000
7518
1002
}
  0
ENDBLK
  5
98
330
90
100
AcDbEntity
  8
0
100
AcDbBlockEnd
  0
BLOCK
  5
226
330
99
100
AcDbEntity
  8
0
100
AcDbBlockBegin
  2
MEFA Logo Dübel Rot klein_0001 - MEFA Dübel rot_dwg_Schraffur_A0V677HPK2-15012-Ansicht _1_
 70
     0
 10
0.0
 20
0.0
 30
0.0
  3
MEFA Logo Dübel Rot klein_0001 - MEFA Dübel rot_dwg_Schraffur_A0V677HPK2-15012-Ansicht _1_
  1

  0
LINE
  5
9A
330
99
100
AcDbEntity
  8
G-IMPT
370
    40
100
AcDbLine
 10
103.7745303434604
 20
96.09151757407843
 30
0.0
 11
103.9040235462177
 21
97.32668350807141
 31
0.0
1001
REVIT
1002
{
1070
     3
1000
7518
1002
}
  0
LINE
  5
9B
330
99
100
AcDbEntity
  8
G-IMPT
370
    40
100
AcDbLine
 10
103.9040235462177
 20
97.32668350807141
 30
0.0
 11
103.9040235462177
 21
95.63331085662943
 31
0.0
1001
REVIT
1002
{
1070
     3
1000
7518
1002
}
  0
LINE
  5
9C
330
99
100
AcDbEntity
  8
G-IMPT
370
    40
100
AcDbLine
 10
103.9040235462177
 20
95.63331085662943
 30
0.0
 11
103.7745303434604
 21
96.09151757407843
 31
0.0
1001
REVIT
1002
{
1070
     3
1000
7518
1002
}
  0
HATCH
  5
9D
330
99
100
AcDbEntity
  8
G-IMPT
370
    40
100
AcDbHatch
 10
0.0
 20
0.0
 30
0.0
210
0.0
220
0.0
230
1.0
  2
SOLID
 70
     1
 71
     0
 91
        1
 92
        0
 93
        3
 72
     1
 10
103.7745303434604
 20
96.09151757407843
 11
103.9040235462177
 21
97.32668350807141
 72
     1
 10
103.9040235462177
 20
97.32668350807141
 11
103.9040235462177
 21
95.63331085662943
 72
     1
 10
103.9040235462177
 20
95.63331085662943
 11
103.7745303434604
 21
96.09151757407843
 97
        0
 75
     0
 76
     1
 98
        1
 10
0.0
 20
0.0
450
        0
451
        0
460
0.0
461
0.0
452
        0
462
0.0
453
        0
470

1001
REVIT
1002
{
1070
     3
1000
7518
1002
}
  0
LINE
  5
9E
330
99
100
AcDbEntity
  8
G-IMPT
370
    40
100
AcDbLine
 10
103.9040235462177
 20
97.32668350807141
 30
0.0
 11
103.9040235462177
 21
95.63331085662943
 31
0.0
1001
REVIT
1002
{
1070
     3
1000
7518
1002
}
  0
LINE
  5
9F
330
99
100
AcDbEntity
  8
G-IMPT
370
    40
100
AcDbLine
 10
103.9040235462177
 20
95.63331085662943
 30
0.0
 11
104.7606708875354
 21
98.08372069342192
 31
0.0
1001
REVIT
1002
{
1070
     3
1000
7518
1002
}
  0
LINE
  5
A0
330
99
100
AcDbEntity
  8
G-IMPT
370
    40
100
AcDbLine
 10
104.7606708875354
 20
98.08372069342192
 30
0.0
 11
103.9040235462177
 21
97.32668350807141
 31
0.0
1001
REVIT
1002
{
1070
     3
1000
7518
1002
}
  0
HATCH
  5
A1
330
99
100
AcDbEntity
  8
G-IMPT
370
    40
100
AcDbHatch
 10
0.0
 20
0.0
 30
0.0
210
0.0
220
0.0
230
1.0
  2
SOLID
 70
     1
 71
     0
 91
        1
 92
        0
 93
        3
 72
     1
 10
103.9040235462177
 20
97.32668350807141
 11
103.9040235462177
 21
95.63331085662943
 72
     1
 10
103.9040235462177
 20
95.63331085662943
 11
104.7606708875354
 21
98.08372069342192
 72
     1
 10
104.7606708875354
 20
98.08372069342192
 11
103.9040235462177
 21
97.32668350807141
 97
        0
 75
     0
 76
     1
 98
        1
 10
0.0
 20
0.0
450
        0
451
        0
460
0.0
461
0.0
452
        0
462
0.0
453
        0
470

1001
REVIT
1002
{
1070
     3
1000
7518
1002
}
  0
LINE
  5
A2
330
99
100
AcDbEntity
  8
G-IMPT
370
    40
100
AcDbLine
 10
103.9040235462177
 20
95.63331085662943
 30
0.0
 11
104.7606708875354
 21
98.08372069342192
 31
0.0
1001
REVIT
1002
{
1070
     3
1000
7518
1002
}
  0
LINE
  5
A3
330
99
100
AcDbEntity
  8
G-IMPT
370
    40
100
AcDbLine
 10
104.7606708875354
 20
98.08372069342192
 30
0.0
 11
103.9040235462177
 21
94.8762736712789
 31
0.0
1001
REVIT
1002
{
1070
     3
1000
7518
1002
}
  0
LINE
  5
A4
330
99
100
AcDbEntity
  8
G-IMPT
370
    40
100
AcDbLine
 10
103.9040235462177
 20
94.8762736712789
 30
0.0
 11
103.9040235462177
 21
95.63331085662943
 31
0.0
1001
REVIT
1002
{
1070
     3
1000
7518
1002
}
  0
HATCH
  5
A5
330
99
100
AcDbEntity
  8
G-IMPT
370
    40
100
AcDbHatch
 10
0.0
 20
0.0
 30
0.0
210
0.0
220
0.0
230
1.0
  2
SOLID
 70
     1
 71
     0
 91
        1
 92
        0
 93
        3
 72
     1
 10
103.9040235462177
 20
95.63331085662943
 11
104.7606708875354
 21
98.08372069342192
 72
     1
 10
104.7606708875354
 20
98.08372069342192
 11
103.9040235462177
 21
94.8762736712789
 72
     1
 10
103.9040235462177
 20
94.8762736712789
 11
103.9040235462177
 21
95.63331085662943
 97
        0
 75
     0
 76
     1
 98
        1
 10
0.0
 20
0.0
450
        0
451
        0
460
0.0
461
0.0
452
        0
462
0.0
453
        0
470

1001
REVIT
1002
{
1070
     3
1000
7518
1002
}
  0
LINE
  5
A6
330
99
100
AcDbEntity
  8
G-IMPT
370
    40
100
AcDbLine
 10
104.7606708875354
 20
98.08372069342192
 30
0.0
 11
103.9040235462177
 21
94.8762736712789
 31
0.0
1001
REVIT
1002
{
1070
     3
1000
7518
1002
}
  0
LINE
  5
A7
330
99
100
AcDbEntity
  8
G-IMPT
370
    40
100
AcDbLine
 10
103.9040235462177
 20
94.8762736712789
 30
0.0
 11
104.7606708875354
 21
94.8762736712789
 31
0.0
1001
REVIT
1002
{
1070
     3
1000
7518
1002
}
  0
LINE
  5
A8
330
99
100
AcDbEntity
  8
G-IMPT
370
    40
100
AcDbLine
 10
104.7606708875354
 20
94.8762736712789
 30
0.0
 11
104.7606708875354
 21
98.08372069342192
 31
0.0
1001
REVIT
1002
{
1070
     3
1000
7518
1002
}
  0
HATCH
  5
A9
330
99
100
AcDbEntity
  8
G-IMPT
370
    40
100
AcDbHatch
 10
0.0
 20
0.0
 30
0.0
210
0.0
220
0.0
230
1.0
  2
SOLID
 70
     1
 71
     0
 91
        1
 92
        0
 93
        3
 72
     1
 10
104.7606708875354
 20
98.08372069342192
 11
103.9040235462177
 21
94.8762736712789
 72
     1
 10
103.9040235462177
 20
94.8762736712789
 11
104.7606708875354
 21
94.8762736712789
 72
     1
 10
104.7606708875354
 20
94.8762736712789
 11
104.7606708875354
 21
98.08372069342192
 97
        0
 75
     0
 76
     1
 98
        1
 10
0.0
 20
0.0
450
        0
451
        0
460
0.0
461
0.0
452
        0
462
0.0
453
        0
470

1001
REVIT
1002
{
1070
     3
1000
7518
1002
}
  0
LINE
  5
AA
330
99
100
AcDbEntity
  8
G-IMPT
370
    40
100
AcDbLine
 10
103.9040235462177
 20
94.8762736712789
 30
0.0
 11
104.7606708875354
 21
94.8762736712789
 31
0.0
1001
REVIT
1002
{
1070
     3
1000
7518
1002
}
  0
LINE
  5
AB
330
99
100
AcDbEntity
  8
G-IMPT
370
    40
100
AcDbLine
 10
104.7606708875354
 20
94.8762736712789
 30
0.0
 11
112.0651902311059
 21
94.23876867308901
 31
0.0
1001
REVIT
1002
{
1070
     3
1000
7518
1002
}
  0
LINE
  5
AC
330
99
100
AcDbEntity
  8
G-IMPT
370
    40
100
AcDbLine
 10
112.0651902311059
 20
94.23876867308901
 30
0.0
 11
103.9040235462177
 21
94.8762736712789
 31
0.0
1001
REVIT
1002
{
1070
     3
1000
7518
1002
}
  0
HATCH
  5
AD
330
99
100
AcDbEntity
  8
G-IMPT
370
    40
100
AcDbHatch
 10
0.0
 20
0.0
 30
0.0
210
0.0
220
0.0
230
1.0
  2
SOLID
 70
     1
 71
     0
 91
        1
 92
        0
 93
        3
 72
     1
 10
103.9040235462177
 20
94.8762736712789
 11
104.7606708875354
 21
94.8762736712789
 72
     1
 10
104.7606708875354
 20
94.8762736712789
 11
112.0651902311059
 21
94.23876867308901
 72
     1
 10
112.0651902311059
 20
94.23876867308901
 11
103.9040235462177
 21
94.8762736712789
 97
        0
 75
     0
 76
     1
 98
        1
 10
0.0
 20
0.0
450
        0
451
        0
460
0.0
461
0.0
452
        0
462
0.0
453
        0
470

1001
REVIT
1002
{
1070
     3
1000
7518
1002
}
  0
LINE
  5
AE
330
99
100
AcDbEntity
  8
G-IMPT
370
    40
100
AcDbLine
 10
104.7606708875354
 20
94.8762736712789
 30
0.0
 11
112.0651902311059
 21
94.23876867308901
 31
0.0
1001
REVIT
1002
{
1070
     3
1000
7518
1002
}
  0
LINE
  5
AF
330
99
100
AcDbEntity
  8
G-IMPT
370
    40
100
AcDbLine
 10
112.0651902311059
 20
94.23876867308901
 30
0.0
 11
105.9958368215283
 21
94.8762736712789
 31
0.0
1001
REVIT
1002
{
1070
     3
1000
7518
1002
}
  0
LINE
  5
B0
330
99
100
AcDbEntity
  8
G-IMPT
370
    40
100
AcDbLine
 10
105.9958368215283
 20
94.8762736712789
 30
0.0
 11
104.7606708875354
 21
94.8762736712789
 31
0.0
1001
REVIT
1002
{
1070
     3
1000
7518
1002
}
  0
HATCH
  5
B1
330
99
100
AcDbEntity
  8
G-IMPT
370
    40
100
AcDbHatch
 10
0.0
 20
0.0
 30
0.0
210
0.0
220
0.0
230
1.0
  2
SOLID
 70
     1
 71
     0
 91
        1
 92
        0
 93
        3
 72
     1
 10
104.7606708875354
 20
94.8762736712789
 11
112.0651902311059
 21
94.23876867308901
 72
     1
 10
112.0651902311059
 20
94.23876867308901
 11
105.9958368215283
 21
94.8762736712789
 72
     1
 10
105.9958368215283
 20
94.8762736712789
 11
104.7606708875354
 21
94.8762736712789
 97
        0
 75
     0
 76
     1
 98
        1
 10
0.0
 20
0.0
450
        0
451
        0
460
0.0
461
0.0
452
        0
462
0.0
453
        0
470

1001
REVIT
1002
{
1070
     3
1000
7518
1002
}
  0
LINE
  5
B2
330
99
100
AcDbEntity
  8
G-IMPT
370
    40
100
AcDbLine
 10
112.0651902311059
 20
94.23876867308901
 30
0.0
 11
105.9958368215283
 21
94.8762736712789
 31
0.0
1001
REVIT
1002
{
1070
     3
1000
7518
1002
}
  0
LINE
  5
B3
330
99
100
AcDbEntity
  8
G-IMPT
370
    40
100
AcDbLine
 10
105.9958368215283
 20
94.8762736712789
 30
0.0
 11
108.3177228624726
 21
94.8762736712789
 31
0.0
1001
REVIT
1002
{
1070
     3
1000
7518
1002
}
  0
LINE
  5
B4
330
99
100
AcDbEntity
  8
G-IMPT
370
    40
100
AcDbLine
 10
108.3177228624726
 20
94.8762736712789
 30
0.0
 11
112.0651902311059
 21
94.23876867308901
 31
0.0
1001
REVIT
1002
{
1070
     3
1000
7518
1002
}
  0
HATCH
  5
B5
330
99
100
AcDbEntity
  8
G-IMPT
370
    40
100
AcDbHatch
 10
0.0
 20
0.0
 30
0.0
210
0.0
220
0.0
230
1.0
  2
SOLID
 70
     1
 71
     0
 91
        1
 92
        0
 93
        3
 72
     1
 10
112.0651902311059
 20
94.23876867308901
 11
105.9958368215283
 21
94.8762736712789
 72
     1
 10
105.9958368215283
 20
94.8762736712789
 11
108.3177228624726
 21
94.8762736712789
 72
     1
 10
108.3177228624726
 20
94.8762736712789
 11
112.0651902311059
 21
94.23876867308901
 97
        0
 75
     0
 76
     1
 98
        1
 10
0.0
 20
0.0
450
        0
451
        0
460
0.0
461
0.0
452
        0
462
0.0
453
        0
470

1001
REVIT
1002
{
1070
     3
1000
7518
1002
}
  0
LINE
  5
B6
330
99
100
AcDbEntity
  8
G-IMPT
370
    40
100
AcDbLine
 10
105.9958368215283
 20
94.8762736712789
 30
0.0
 11
108.3177228624726
 21
94.8762736712789
 31
0.0
1001
REVIT
1002
{
1070
     3
1000
7518
1002
}
  0
LINE
  5
B7
330
99
100
AcDbEntity
  8
G-IMPT
370
    40
100
AcDbLine
 10
108.3177228624726
 20
94.8762736712789
 30
0.0
 11
107.6095213481966
 21
96.09151757407843
 31
0.0
1001
REVIT
1002
{
1070
     3
1000
7518
1002
}
  0
LINE
  5
B8
330
99
100
AcDbEntity
  8
G-IMPT
370
    40
100
AcDbLine
 10
107.6095213481966
 20
96.09151757407843
 30
0.0
 11
105.9958368215283
 21
94.8762736712789
 31
0.0
1001
REVIT
1002
{
1070
     3
1000
7518
1002
}
  0
HATCH
  5
B9
330
99
100
AcDbEntity
  8
G-IMPT
370
    40
100
AcDbHatch
 10
0.0
 20
0.0
 30
0.0
210
0.0
220
0.0
230
1.0
  2
SOLID
 70
     1
 71
     0
 91
        1
 92
        0
 93
        3
 72
     1
 10
105.9958368215283
 20
94.8762736712789
 11
108.3177228624726
 21
94.8762736712789
 72
     1
 10
108.3177228624726
 20
94.8762736712789
 11
107.6095213481966
 21
96.09151757407843
 72
     1
 10
107.6095213481966
 20
96.09151757407843
 11
105.9958368215283
 21
94.8762736712789
 97
        0
 75
     0
 76
     1
 98
        1
 10
0.0
 20
0.0
450
        0
451
        0
460
0.0
461
0.0
452
        0
462
0.0
453
        0
470

1001
REVIT
1002
{
1070
     3
1000
7518
1002
}
  0
LINE
  5
BA
330
99
100
AcDbEntity
  8
G-IMPT
370
    40
100
AcDbLine
 10
108.3177228624726
 20
94.8762736712789
 30
0.0
 11
107.6095213481966
 21
96.09151757407843
 31
0.0
1001
REVIT
1002
{
1070
     3
1000
7518
1002
}
  0
LINE
  5
BB
330
99
100
AcDbEntity
  8
G-IMPT
370
    40
100
AcDbLine
 10
107.6095213481966
 20
96.09151757407843
 30
0.0
 11
107.7489755665506
 21
97.32668350807141
 31
0.0
1001
REVIT
1002
{
1070
     3
1000
7518
1002
}
  0
LINE
  5
BC
330
99
100
AcDbEntity
  8
G-IMPT
370
    40
100
AcDbLine
 10
107.7489755665506
 20
97.32668350807141
 30
0.0
 11
108.3177228624726
 21
94.8762736712789
 31
0.0
1001
REVIT
1002
{
1070
     3
1000
7518
1002
}
  0
HATCH
  5
BD
330
99
100
AcDbEntity
  8
G-IMPT
370
    40
100
AcDbHatch
 10
0.0
 20
0.0
 30
0.0
210
0.0
220
0.0
230
1.0
  2
SOLID
 70
     1
 71
     0
 91
        1
 92
        0
 93
        3
 72
     1
 10
108.3177228624726
 20
94.8762736712789
 11
107.6095213481966
 21
96.09151757407843
 72
     1
 10
107.6095213481966
 20
96.09151757407843
 11
107.7489755665506
 21
97.32668350807141
 72
     1
 10
107.7489755665506
 20
97.32668350807141
 11
108.3177228624726
 21
94.8762736712789
 97
        0
 75
     0
 76
     1
 98
        1
 10
0.0
 20
0.0
450
        0
451
        0
460
0.0
461
0.0
452
        0
462
0.0
453
        0
470

1001
REVIT
1002
{
1070
     3
1000
7518
1002
}
  0
LINE
  5
BE
330
99
100
AcDbEntity
  8
G-IMPT
370
    40
100
AcDbLine
 10
107.6095213481966
 20
96.09151757407843
 30
0.0
 11
107.7489755665506
 21
97.32668350807141
 31
0.0
1001
REVIT
1002
{
1070
     3
1000
7518
1002
}
  0
LINE
  5
BF
330
99
100
AcDbEntity
  8
G-IMPT
370
    40
100
AcDbLine
 10
107.7489755665506
 20
97.32668350807141
 30
0.0
 11
107.6095213481966
 21
96.86847679062239
 31
0.0
1001
REVIT
1002
{
1070
     3
1000
7518
1002
}
  0
LINE
  5
C0
330
99
100
AcDbEntity
  8
G-IMPT
370
    40
100
AcDbLine
 10
107.6095213481966
 20
96.86847679062239
 30
0.0
 11
107.6095213481966
 21
96.09151757407843
 31
0.0
1001
REVIT
1002
{
1070
     3
1000
7518
1002
}
  0
HATCH
  5
C1
330
99
100
AcDbEntity
  8
G-IMPT
370
    40
100
AcDbHatch
 10
0.0
 20
0.0
 30
0.0
210
0.0
220
0.0
230
1.0
  2
SOLID
 70
     1
 71
     0
 91
        1
 92
        0
 93
        3
 72
     1
 10
107.6095213481966
 20
96.09151757407843
 11
107.7489755665506
 21
97.32668350807141
 72
     1
 10
107.7489755665506
 20
97.32668350807141
 11
107.6095213481966
 21
96.86847679062239
 72
     1
 10
107.6095213481966
 20
96.86847679062239
 11
107.6095213481966
 21
96.09151757407843
 97
        0
 75
     0
 76
     1
 98
        1
 10
0.0
 20
0.0
450
        0
451
        0
460
0.0
461
0.0
452
        0
462
0.0
453
        0
470

1001
REVIT
1002
{
1070
     3
1000
7518
1002
}
  0
LINE
  5
C2
330
99
100
AcDbEntity
  8
G-IMPT
370
    40
100
AcDbLine
 10
107.7489755665506
 20
97.32668350807141
 30
0.0
 11
107.6095213481966
 21
96.86847679062239
 31
0.0
1001
REVIT
1002
{
1070
     3
1000
7518
1002
}
  0
LINE
  5
C3
330
99
100
AcDbEntity
  8
G-IMPT
370
    40
100
AcDbLine
 10
107.6095213481966
 20
96.86847679062239
 30
0.0
 11
105.9958368215283
 21
96.86847679062239
 31
0.0
1001
REVIT
1002
{
1070
     3
1000
7518
1002
}
  0
LINE
  5
C4
330
99
100
AcDbEntity
  8
G-IMPT
370
    40
100
AcDbLine
 10
105.9958368215283
 20
96.86847679062239
 30
0.0
 11
107.7489755665506
 21
97.32668350807141
 31
0.0
1001
REVIT
1002
{
1070
     3
1000
7518
1002
}
  0
HATCH
  5
C5
330
99
100
AcDbEntity
  8
G-IMPT
370
    40
100
AcDbHatch
 10
0.0
 20
0.0
 30
0.0
210
0.0
220
0.0
230
1.0
  2
SOLID
 70
     1
 71
     0
 91
        1
 92
        0
 93
        3
 72
     1
 10
107.7489755665506
 20
97.32668350807141
 11
107.6095213481966
 21
96.86847679062239
 72
     1
 10
107.6095213481966
 20
96.86847679062239
 11
105.9958368215283
 21
96.86847679062239
 72
     1
 10
105.9958368215283
 20
96.86847679062239
 11
107.7489755665506
 21
97.32668350807141
 97
        0
 75
     0
 76
     1
 98
        1
 10
0.0
 20
0.0
450
        0
451
        0
460
0.0
461
0.0
452
        0
462
0.0
453
        0
470

1001
REVIT
1002
{
1070
     3
1000
7518
1002
}
  0
LINE
  5
C6
330
99
100
AcDbEntity
  8
G-IMPT
370
    40
100
AcDbLine
 10
102.0512746452283
 20
95.63331085662943
 30
0.0
 11
102.0512746452283
 21
96.09151757407843
 31
0.0
1001
REVIT
1002
{
1070
     3
1000
7518
1002
}
  0
LINE
  5
C7
330
99
100
AcDbEntity
  8
G-IMPT
370
    40
100
AcDbLine
 10
102.0512746452283
 20
96.09151757407843
 30
0.0
 11
103.7745303434604
 21
96.09151757407843
 31
0.0
1001
REVIT
1002
{
1070
     3
1000
7518
1002
}
  0
LINE
  5
C8
330
99
100
AcDbEntity
  8
G-IMPT
370
    40
100
AcDbLine
 10
103.7745303434604
 20
96.09151757407843
 30
0.0
 11
102.0512746452283
 21
95.63331085662943
 31
0.0
1001
REVIT
1002
{
1070
     3
1000
7518
1002
}
  0
HATCH
  5
C9
330
99
100
AcDbEntity
  8
G-IMPT
370
    40
100
AcDbHatch
 10
0.0
 20
0.0
 30
0.0
210
0.0
220
0.0
230
1.0
  2
SOLID
 70
     1
 71
     0
 91
        1
 92
        0
 93
        3
 72
     1
 10
102.0512746452283
 20
95.63331085662943
 11
102.0512746452283
 21
96.09151757407843
 72
     1
 10
102.0512746452283
 20
96.09151757407843
 11
103.7745303434604
 21
96.09151757407843
 72
     1
 10
103.7745303434604
 20
96.09151757407843
 11
102.0512746452283
 21
95.63331085662943
 97
        0
 75
     0
 76
     1
 98
        1
 10
0.0
 20
0.0
450
        0
451
        0
460
0.0
461
0.0
452
        0
462
0.0
453
        0
470

1001
REVIT
1002
{
1070
     3
1000
7518
1002
}
  0
LINE
  5
CA
330
99
100
AcDbEntity
  8
G-IMPT
370
    40
100
AcDbLine
 10
102.0512746452283
 20
95.63331085662943
 30
0.0
 11
103.7745303434604
 21
96.09151757407843
 31
0.0
1001
REVIT
1002
{
1070
     3
1000
7518
1002
}
  0
LINE
  5
CB
330
99
100
AcDbEntity
  8
G-IMPT
370
    40
100
AcDbLine
 10
103.7745303434604
 20
96.09151757407843
 30
0.0
 11
103.9040235462177
 21
95.63331085662943
 31
0.0
1001
REVIT
1002
{
1070
     3
1000
7518
1002
}
  0
LINE
  5
CC
330
99
100
AcDbEntity
  8
G-IMPT
370
    40
100
AcDbLine
 10
103.9040235462177
 20
95.63331085662943
 30
0.0
 11
102.0512746452283
 21
95.63331085662943
 31
0.0
1001
REVIT
1002
{
1070
     3
1000
7518
1002
}
  0
HATCH
  5
CD
330
99
100
AcDbEntity
  8
G-IMPT
370
    40
100
AcDbHatch
 10
0.0
 20
0.0
 30
0.0
210
0.0
220
0.0
230
1.0
  2
SOLID
 70
     1
 71
     0
 91
        1
 92
        0
 93
        3
 72
     1
 10
102.0512746452283
 20
95.63331085662943
 11
103.7745303434604
 21
96.09151757407843
 72
     1
 10
103.7745303434604
 20
96.09151757407843
 11
103.9040235462177
 21
95.63331085662943
 72
     1
 10
103.9040235462177
 20
95.63331085662943
 11
102.0512746452283
 21
95.63331085662943
 97
        0
 75
     0
 76
     1
 98
        1
 10
0.0
 20
0.0
450
        0
451
        0
460
0.0
461
0.0
452
        0
462
0.0
453
        0
470

1001
REVIT
1002
{
1070
     3
1000
7518
1002
}
  0
LINE
  5
CE
330
99
100
AcDbEntity
  8
G-IMPT
370
    40
100
AcDbLine
 10
111.6337716492705
 20
94.8762736712789
 30
0.0
 11
112.0651902311059
 21
98.72122569161179
 31
0.0
1001
REVIT
1002
{
1070
     3
1000
7518
1002
}
  0
LINE
  5
CF
330
99
100
AcDbEntity
  8
G-IMPT
370
    40
100
AcDbLine
 10
112.0651902311059
 20
98.72122569161179
 30
0.0
 11
112.0651902311059
 21
94.23876867308901
 31
0.0
1001
REVIT
1002
{
1070
     3
1000
7518
1002
}
  0
LINE
  5
D0
330
99
100
AcDbEntity
  8
G-IMPT
370
    40
100
AcDbLine
 10
112.0651902311059
 20
94.23876867308901
 30
0.0
 11
111.6337716492705
 21
94.8762736712789
 31
0.0
1001
REVIT
1002
{
1070
     3
1000
7518
1002
}
  0
HATCH
  5
D1
330
99
100
AcDbEntity
  8
G-IMPT
370
    40
100
AcDbHatch
 10
0.0
 20
0.0
 30
0.0
210
0.0
220
0.0
230
1.0
  2
SOLID
 70
     1
 71
     0
 91
        1
 92
        0
 93
        3
 72
     1
 10
111.6337716492705
 20
94.8762736712789
 11
112.0651902311059
 21
98.72122569161179
 72
     1
 10
112.0651902311059
 20
98.72122569161179
 11
112.0651902311059
 21
94.23876867308901
 72
     1
 10
112.0651902311059
 20
94.23876867308901
 11
111.6337716492705
 21
94.8762736712789
 97
        0
 75
     0
 76
     1
 98
        1
 10
0.0
 20
0.0
450
        0
451
        0
460
0.0
461
0.0
452
        0
462
0.0
453
        0
470

1001
REVIT
1002
{
1070
     3
1000
7518
1002
}
  0
LINE
  5
D2
330
99
100
AcDbEntity
  8
G-IMPT
370
    40
100
AcDbLine
 10
112.0651902311059
 20
98.72122569161179
 30
0.0
 11
112.0651902311059
 21
94.23876867308901
 31
0.0
1001
REVIT
1002
{
1070
     3
1000
7518
1002
}
  0
LINE
  5
D3
330
99
100
AcDbEntity
  8
G-IMPT
370
    40
100
AcDbLine
 10
112.0651902311059
 20
94.23876867308901
 30
0.0
 11
112.1804037336753
 21
98.70605754624277
 31
0.0
1001
REVIT
1002
{
1070
     3
1000
7518
1002
}
  0
LINE
  5
D4
330
99
100
AcDbEntity
  8
G-IMPT
370
    40
100
AcDbLine
 10
112.1804037336753
 20
98.70605754624277
 30
0.0
 11
112.0651902311059
 21
98.72122569161179
 31
0.0
1001
REVIT
1002
{
1070
     3
1000
7518
1002
}
  0
HATCH
  5
D5
330
99
100
AcDbEntity
  8
G-IMPT
370
    40
100
AcDbHatch
 10
0.0
 20
0.0
 30
0.0
210
0.0
220
0.0
230
1.0
  2
SOLID
 70
     1
 71
     0
 91
        1
 92
        0
 93
        3
 72
     1
 10
112.0651902311059
 20
98.72122569161179
 11
112.0651902311059
 21
94.23876867308901
 72
     1
 10
112.0651902311059
 20
94.23876867308901
 11
112.1804037336753
 21
98.70605754624277
 72
     1
 10
112.1804037336753
 20
98.70605754624277
 11
112.0651902311059
 21
98.72122569161179
 97
        0
 75
     0
 76
     1
 98
        1
 10
0.0
 20
0.0
450
        0
451
        0
460
0.0
461
0.0
452
        0
462
0.0
453
        0
470

1001
REVIT
1002
{
1070
     3
1000
7518
1002
}
  0
LINE
  5
D6
330
99
100
AcDbEntity
  8
G-IMPT
370
    40
100
AcDbLine
 10
112.0651902311059
 20
94.23876867308901
 30
0.0
 11
112.1804037336753
 21
98.70605754624277
 31
0.0
1001
REVIT
1002
{
1070
     3
1000
7518
1002
}
  0
LINE
  5
D7
330
99
100
AcDbEntity
  8
G-IMPT
370
    40
100
AcDbLine
 10
112.1804037336753
 20
98.70605754624277
 30
0.0
 11
112.1804037336753
 21
94.25393681845804
 31
0.0
1001
REVIT
1002
{
1070
     3
1000
7518
1002
}
  0
LINE
  5
D8
330
99
100
AcDbEntity
  8
G-IMPT
370
    40
100
AcDbLine
 10
112.1804037336753
 20
94.25393681845804
 30
0.0
 11
112.0651902311059
 21
94.23876867308901
 31
0.0
1001
REVIT
1002
{
1070
     3
1000
7518
1002
}
  0
HATCH
  5
D9
330
99
100
AcDbEntity
  8
G-IMPT
370
    40
100
AcDbHatch
 10
0.0
 20
0.0
 30
0.0
210
0.0
220
0.0
230
1.0
  2
SOLID
 70
     1
 71
     0
 91
        1
 92
        0
 93
        3
 72
     1
 10
112.0651902311059
 20
94.23876867308901
 11
112.1804037336753
 21
98.70605754624277
 72
     1
 10
112.1804037336753
 20
98.70605754624277
 11
112.1804037336753
 21
94.25393681845804
 72
     1
 10
112.1804037336753
 20
94.25393681845804
 11
112.0651902311059
 21
94.23876867308901
 97
        0
 75
     0
 76
     1
 98
        1
 10
0.0
 20
0.0
450
        0
451
        0
460
0.0
461
0.0
452
        0
462
0.0
453
        0
470

1001
REVIT
1002
{
1070
     3
1000
7518
1002
}
  0
LINE
  5
DA
330
99
100
AcDbEntity
  8
G-IMPT
370
    40
100
AcDbLine
 10
112.1804037336753
 20
98.70605754624277
 30
0.0
 11
112.1804037336753
 21
94.25393681845804
 31
0.0
1001
REVIT
1002
{
1070
     3
1000
7518
1002
}
  0
LINE
  5
DB
330
99
100
AcDbEntity
  8
G-IMPT
370
    40
100
AcDbLine
 10
112.1804037336753
 20
94.25393681845804
 30
0.0
 11
112.2877656264438
 21
98.66158679417599
 31
0.0
1001
REVIT
1002
{
1070
     3
1000
7518
1002
}
  0
LINE
  5
DC
330
99
100
AcDbEntity
  8
G-IMPT
370
    40
100
AcDbLine
 10
112.2877656264438
 20
98.66158679417599
 30
0.0
 11
112.1804037336753
 21
98.70605754624277
 31
0.0
1001
REVIT
1002
{
1070
     3
1000
7518
1002
}
  0
HATCH
  5
DD
330
99
100
AcDbEntity
  8
G-IMPT
370
    40
100
AcDbHatch
 10
0.0
 20
0.0
 30
0.0
210
0.0
220
0.0
230
1.0
  2
SOLID
 70
     1
 71
     0
 91
        1
 92
        0
 93
        3
 72
     1
 10
112.1804037336753
 20
98.70605754624277
 11
112.1804037336753
 21
94.25393681845804
 72
     1
 10
112.1804037336753
 20
94.25393681845804
 11
112.2877656264438
 21
98.66158679417599
 72
     1
 10
112.2877656264438
 20
98.66158679417599
 11
112.1804037336753
 21
98.70605754624277
 97
        0
 75
     0
 76
     1
 98
        1
 10
0.0
 20
0.0
450
        0
451
        0
460
0.0
461
0.0
452
        0
462
0.0
453
        0
470

1001
REVIT
1002
{
1070
     3
1000
7518
1002
}
  0
LINE
  5
DE
330
99
100
AcDbEntity
  8
G-IMPT
370
    40
100
AcDbLine
 10
112.1804037336753
 20
94.25393681845804
 30
0.0
 11
112.2877656264438
 21
98.66158679417599
 31
0.0
1001
REVIT
1002
{
1070
     3
1000
7518
1002
}
  0
LINE
  5
DF
330
99
100
AcDbEntity
  8
G-IMPT
370
    40
100
AcDbLine
 10
112.2877656264438
 20
98.66158679417599
 30
0.0
 11
112.2877656264438
 21
94.29840757052479
 31
0.0
1001
REVIT
1002
{
1070
     3
1000
7518
1002
}
  0
LINE
  5
E0
330
99
100
AcDbEntity
  8
G-IMPT
370
    40
100
AcDbLine
 10
112.2877656264438
 20
94.29840757052479
 30
0.0
 11
112.1804037336753
 21
94.25393681845804
 31
0.0
1001
REVIT
1002
{
1070
     3
1000
7518
1002
}
  0
HATCH
  5
E1
330
99
100
AcDbEntity
  8
G-IMPT
370
    40
100
AcDbHatch
 10
0.0
 20
0.0
 30
0.0
210
0.0
220
0.0
230
1.0
  2
SOLID
 70
     1
 71
     0
 91
        1
 92
        0
 93
        3
 72
     1
 10
112.1804037336753
 20
94.25393681845804
 11
112.2877656264438
 21
98.66158679417599
 72
     1
 10
112.2877656264438
 20
98.66158679417599
 11
112.2877656264438
 21
94.29840757052479
 72
     1
 10
112.2877656264438
 20
94.29840757052479
 11
112.1804037336753
 21
94.25393681845804
 97
        0
 75
     0
 76
     1
 98
        1
 10
0.0
 20
0.0
450
        0
451
        0
460
0.0
461
0.0
452
        0
462
0.0
453
        0
470

1001
REVIT
1002
{
1070
     3
1000
7518
1002
}
  0
LINE
  5
E2
330
99
100
AcDbEntity
  8
G-IMPT
370
    40
100
AcDbLine
 10
112.2877656264438
 20
98.66158679417599
 30
0.0
 11
112.2877656264438
 21
94.29840757052479
 31
0.0
1001
REVIT
1002
{
1070
     3
1000
7518
1002
}
  0
LINE
  5
E3
330
99
100
AcDbEntity
  8
G-IMPT
370
    40
100
AcDbLine
 10
112.2877656264438
 20
94.29840757052479
 30
0.0
 11
112.3799593738432
 21
98.59084404367346
 31
0.0
1001
REVIT
1002
{
1070
     3
1000
7518
1002
}
  0
LINE
  5
E4
330
99
100
AcDbEntity
  8
G-IMPT
370
    40
100
AcDbLine
 10
112.3799593738432
 20
98.59084404367346
 30
0.0
 11
112.2877656264438
 21
98.66158679417599
 31
0.0
1001
REVIT
1002
{
1070
     3
1000
7518
1002
}
  0
HATCH
  5
E5
330
99
100
AcDbEntity
  8
G-IMPT
370
    40
100
AcDbHatch
 10
0.0
 20
0.0
 30
0.0
210
0.0
220
0.0
230
1.0
  2
SOLID
 70
     1
 71
     0
 91
        1
 92
        0
 93
        3
 72
     1
 10
112.2877656264438
 20
98.66158679417599
 11
112.2877656264438
 21
94.29840757052479
 72
     1
 10
112.2877656264438
 20
94.29840757052479
 11
112.3799593738432
 21
98.59084404367346
 72
     1
 10
112.3799593738432
 20
98.59084404367346
 11
112.2877656264438
 21
98.66158679417599
 97
        0
 75
     0
 76
     1
 98
        1
 10
0.0
 20
0.0
450
        0
451
        0
460
0.0
461
0.0
452
        0
462
0.0
453
        0
470

1001
REVIT
1002
{
1070
     3
1000
7518
1002
}
  0
LINE
  5
E6
330
99
100
AcDbEntity
  8
G-IMPT
370
    40
100
AcDbLine
 10
112.2877656264438
 20
94.29840757052479
 30
0.0
 11
112.3799593738432
 21
98.59084404367346
 31
0.0
1001
REVIT
1002
{
1070
     3
1000
7518
1002
}
  0
LINE
  5
E7
330
99
100
AcDbEntity
  8
G-IMPT
370
    40
100
AcDbLine
 10
112.3799593738432
 20
98.59084404367346
 30
0.0
 11
112.3799593738432
 21
94.36915032102735
 31
0.0
1001
REVIT
1002
{
1070
     3
1000
7518
1002
}
  0
LINE
  5
E8
330
99
100
AcDbEntity
  8
G-IMPT
370
    40
100
AcDbLine
 10
112.3799593738432
 20
94.36915032102735
 30
0.0
 11
112.2877656264438
 21
94.29840757052479
 31
0.0
1001
REVIT
1002
{
1070
     3
1000
7518
1002
}
  0
HATCH
  5
E9
330
99
100
AcDbEntity
  8
G-IMPT
370
    40
100
AcDbHatch
 10
0.0
 20
0.0
 30
0.0
210
0.0
220
0.0
230
1.0
  2
SOLID
 70
     1
 71
     0
 91
        1
 92
        0
 93
        3
 72
     1
 10
112.2877656264438
 20
94.29840757052479
 11
112.3799593738432
 21
98.59084404367346
 72
     1
 10
112.3799593738432
 20
98.59084404367346
 11
112.3799593738432
 21
94.36915032102735
 72
     1
 10
112.3799593738432
 20
94.36915032102735
 11
112.2877656264438
 21
94.29840757052479
 97
        0
 75
     0
 76
     1
 98
        1
 10
0.0
 20
0.0
450
        0
451
        0
460
0.0
461
0.0
452
        0
462
0.0
453
        0
470

1001
REVIT
1002
{
1070
     3
1000
7518
1002
}
  0
LINE
  5
EA
330
99
100
AcDbEntity
  8
G-IMPT
370
    40
100
AcDbLine
 10
112.3799593738432
 20
98.59084404367346
 30
0.0
 11
112.3799593738432
 21
94.36915032102735
 31
0.0
1001
REVIT
1002
{
1070
     3
1000
7518
1002
}
  0
LINE
  5
EB
330
99
100
AcDbEntity
  8
G-IMPT
370
    40
100
AcDbLine
 10
112.3799593738432
 20
94.36915032102735
 30
0.0
 11
112.4507021243458
 21
98.49865029627398
 31
0.0
1001
REVIT
1002
{
1070
     3
1000
7518
1002
}
  0
LINE
  5
EC
330
99
100
AcDbEntity
  8
G-IMPT
370
    40
100
AcDbLine
 10
112.4507021243458
 20
98.49865029627398
 30
0.0
 11
112.3799593738432
 21
98.59084404367346
 31
0.0
1001
REVIT
1002
{
1070
     3
1000
7518
1002
}
  0
HATCH
  5
ED
330
99
100
AcDbEntity
  8
G-IMPT
370
    40
100
AcDbHatch
 10
0.0
 20
0.0
 30
0.0
210
0.0
220
0.0
230
1.0
  2
SOLID
 70
     1
 71
     0
 91
        1
 92
        0
 93
        3
 72
     1
 10
112.3799593738432
 20
98.59084404367346
 11
112.3799593738432
 21
94.36915032102735
 72
     1
 10
112.3799593738432
 20
94.36915032102735
 11
112.4507021243458
 21
98.49865029627398
 72
     1
 10
112.4507021243458
 20
98.49865029627398
 11
112.3799593738432
 21
98.59084404367346
 97
        0
 75
     0
 76
     1
 98
        1
 10
0.0
 20
0.0
450
        0
451
        0
460
0.0
461
0.0
452
        0
462
0.0
453
        0
470

1001
REVIT
1002
{
1070
     3
1000
7518
1002
}
  0
LINE
  5
EE
330
99
100
AcDbEntity
  8
G-IMPT
370
    40
100
AcDbLine
 10
112.3799593738433
 20
94.36915032102735
 30
0.0
 11
112.4507021243458
 21
98.49865029627398
 31
0.0
1001
REVIT
1002
{
1070
     3
1000
7518
1002
}
  0
LINE
  5
EF
330
99
100
AcDbEntity
  8
G-IMPT
370
    40
100
AcDbLine
 10
112.4507021243458
 20
98.49865029627398
 30
0.0
 11
112.4507021243458
 21
94.46134406842682
 31
0.0
1001
REVIT
1002
{
1070
     3
1000
7518
1002
}
  0
LINE
  5
F0
330
99
100
AcDbEntity
  8
G-IMPT
370
    40
100
AcDbLine
 10
112.4507021243458
 20
94.46134406842682
 30
0.0
 11
112.3799593738433
 21
94.36915032102735
 31
0.0
1001
REVIT
1002
{
1070
     3
1000
7518
1002
}
  0
HATCH
  5
F1
330
99
100
AcDbEntity
  8
G-IMPT
370
    40
100
AcDbHatch
 10
0.0
 20
0.0
 30
0.0
210
0.0
220
0.0
230
1.0
  2
SOLID
 70
     1
 71
     0
 91
        1
 92
        0
 93
        3
 72
     1
 10
112.3799593738433
 20
94.36915032102735
 11
112.4507021243458
 21
98.49865029627398
 72
     1
 10
112.4507021243458
 20
98.49865029627398
 11
112.4507021243458
 21
94.46134406842682
 72
     1
 10
112.4507021243458
 20
94.46134406842682
 11
112.3799593738433
 21
94.36915032102735
 97
        0
 75
     0
 76
     1
 98
        1
 10
0.0
 20
0.0
450
        0
451
        0
460
0.0
461
0.0
452
        0
462
0.0
453
        0
470

1001
REVIT
1002
{
1070
     3
1000
7518
1002
}
  0
LINE
  5
F2
330
99
100
AcDbEntity
  8
G-IMPT
370
    40
100
AcDbLine
 10
112.4507021243458
 20
98.49865029627398
 30
0.0
 11
112.4507021243458
 21
94.46134406842682
 31
0.0
1001
REVIT
1002
{
1070
     3
1000
7518
1002
}
  0
LINE
  5
F3
330
99
100
AcDbEntity
  8
G-IMPT
370
    40
100
AcDbLine
 10
112.4507021243458
 20
94.46134406842682
 30
0.0
 11
112.4951728764125
 21
98.39128840350547
 31
0.0
1001
REVIT
1002
{
1070
     3
1000
7518
1002
}
  0
LINE
  5
F4
330
99
100
AcDbEntity
  8
G-IMPT
370
    40
100
AcDbLine
 10
112.4951728764125
 20
98.39128840350547
 30
0.0
 11
112.4507021243458
 21
98.49865029627398
 31
0.0
1001
REVIT
1002
{
1070
     3
1000
7518
1002
}
  0
HATCH
  5
F5
330
99
100
AcDbEntity
  8
G-IMPT
370
    40
100
AcDbHatch
 10
0.0
 20
0.0
 30
0.0
210
0.0
220
0.0
230
1.0
  2
SOLID
 70
     1
 71
     0
 91
        1
 92
        0
 93
        3
 72
     1
 10
112.4507021243458
 20
98.49865029627398
 11
112.4507021243458
 21
94.46134406842682
 72
     1
 10
112.4507021243458
 20
94.46134406842682
 11
112.4951728764125
 21
98.39128840350547
 72
     1
 10
112.4951728764125
 20
98.39128840350547
 11
112.4507021243458
 21
98.49865029627398
 97
        0
 75
     0
 76
     1
 98
        1
 10
0.0
 20
0.0
450
        0
451
        0
460
0.0
461
0.0
452
        0
462
0.0
453
        0
470

1001
REVIT
1002
{
1070
     3
1000
7518
1002
}
  0
LINE
  5
F6
330
99
100
AcDbEntity
  8
G-IMPT
370
    40
100
AcDbLine
 10
112.4507021243458
 20
94.46134406842682
 30
0.0
 11
112.4951728764125
 21
98.39128840350547
 31
0.0
1001
REVIT
1002
{
1070
     3
1000
7518
1002
}
  0
LINE
  5
F7
330
99
100
AcDbEntity
  8
G-IMPT
370
    40
100
AcDbLine
 10
112.4951728764125
 20
98.39128840350547
 30
0.0
 11
112.4951728764125
 21
94.56870596119536
 31
0.0
1001
REVIT
1002
{
1070
     3
1000
7518
1002
}
  0
LINE
  5
F8
330
99
100
AcDbEntity
  8
G-IMPT
370
    40
100
AcDbLine
 10
112.4951728764125
 20
94.56870596119536
 30
0.0
 11
112.4507021243458
 21
94.46134406842682
 31
0.0
1001
REVIT
1002
{
1070
     3
1000
7518
1002
}
  0
HATCH
  5
F9
330
99
100
AcDbEntity
  8
G-IMPT
370
    40
100
AcDbHatch
 10
0.0
 20
0.0
 30
0.0
210
0.0
220
0.0
230
1.0
  2
SOLID
 70
     1
 71
     0
 91
        1
 92
        0
 93
        3
 72
     1
 10
112.4507021243458
 20
94.46134406842682
 11
112.4951728764125
 21
98.39128840350547
 72
     1
 10
112.4951728764125
 20
98.39128840350547
 11
112.4951728764125
 21
94.56870596119536
 72
     1
 10
112.4951728764125
 20
94.56870596119536
 11
112.4507021243458
 21
94.46134406842682
 97
        0
 75
     0
 76
     1
 98
        1
 10
0.0
 20
0.0
450
        0
451
        0
460
0.0
461
0.0
452
        0
462
0.0
453
        0
470

1001
REVIT
1002
{
1070
     3
1000
7518
1002
}
  0
LINE
  5
FA
330
99
100
AcDbEntity
  8
G-IMPT
370
    40
100
AcDbLine
 10
112.4951728764125
 20
98.39128840350547
 30
0.0
 11
112.4951728764125
 21
94.56870596119536
 31
0.0
1001
REVIT
1002
{
1070
     3
1000
7518
1002
}
  0
LINE
  5
FB
330
99
100
AcDbEntity
  8
G-IMPT
370
    40
100
AcDbLine
 10
112.4951728764125
 20
94.56870596119536
 30
0.0
 11
112.5103410217816
 21
98.27607490093619
 31
0.0
1001
REVIT
1002
{
1070
     3
1000
7518
1002
}
  0
LINE
  5
FC
330
99
100
AcDbEntity
  8
G-IMPT
370
    40
100
AcDbLine
 10
112.5103410217816
 20
98.27607490093619
 30
0.0
 11
112.4951728764125
 21
98.39128840350547
 31
0.0
1001
REVIT
1002
{
1070
     3
1000
7518
1002
}
  0
HATCH
  5
FD
330
99
100
AcDbEntity
  8
G-IMPT
370
    40
100
AcDbHatch
 10
0.0
 20
0.0
 30
0.0
210
0.0
220
0.0
230
1.0
  2
SOLID
 70
     1
 71
     0
 91
        1
 92
        0
 93
        3
 72
     1
 10
112.4951728764125
 20
98.39128840350547
 11
112.4951728764125
 21
94.56870596119536
 72
     1
 10
112.4951728764125
 20
94.56870596119536
 11
112.5103410217816
 21
98.27607490093619
 72
     1
 10
112.5103410217816
 20
98.27607490093619
 11
112.4951728764125
 21
98.39128840350547
 97
        0
 75
     0
 76
     1
 98
        1
 10
0.0
 20
0.0
450
        0
451
        0
460
0.0
461
0.0
452
        0
462
0.0
453
        0
470

1001
REVIT
1002
{
1070
     3
1000
7518
1002
}
  0
LINE
  5
FE
330
99
100
AcDbEntity
  8
G-IMPT
370
    40
100
AcDbLine
 10
112.4951728764126
 20
94.56870596119536
 30
0.0
 11
112.5103410217816
 21
98.27607490093619
 31
0.0
1001
REVIT
1002
{
1070
     3
1000
7518
1002
}
  0
LINE
  5
FF
330
99
100
AcDbEntity
  8
G-IMPT
370
    40
100
AcDbLine
 10
112.5103410217816
 20
98.27607490093619
 30
0.0
 11
112.5103410217816
 21
94.68391946376467
 31
0.0
1001
REVIT
1002
{
1070
     3
1000
7518
1002
}
  0
LINE
  5
100
330
99
100
AcDbEntity
  8
G-IMPT
370
    40
100
AcDbLine
 10
112.5103410217816
 20
94.68391946376467
 30
0.0
 11
112.4951728764126
 21
94.56870596119536
 31
0.0
1001
REVIT
1002
{
1070
     3
1000
7518
1002
}
  0
HATCH
  5
101
330
99
100
AcDbEntity
  8
G-IMPT
370
    40
100
AcDbHatch
 10
0.0
 20
0.0
 30
0.0
210
0.0
220
0.0
230
1.0
  2
SOLID
 70
     1
 71
     0
 91
        1
 92
        0
 93
        3
 72
     1
 10
112.4951728764126
 20
94.56870596119536
 11
112.5103410217816
 21
98.27607490093619
 72
     1
 10
112.5103410217816
 20
98.27607490093619
 11
112.5103410217816
 21
94.68391946376467
 72
     1
 10
112.5103410217816
 20
94.68391946376467
 11
112.4951728764126
 21
94.56870596119536
 97
        0
 75
     0
 76
     1
 98
        1
 10
0.0
 20
0.0
450
        0
451
        0
460
0.0
461
0.0
452
        0
462
0.0
453
        0
470

1001
REVIT
1002
{
1070
     3
1000
7518
1002
}
  0
LINE
  5
102
330
99
100
AcDbEntity
  8
G-IMPT
370
    40
100
AcDbLine
 10
109.4276934844551
 20
95.65257987693556
 30
0.0
 11
110.5376641064376
 21
95.65257987693556
 31
0.0
1001
REVIT
1002
{
1070
     3
1000
7518
1002
}
  0
LINE
  5
103
330
99
100
AcDbEntity
  8
G-IMPT
370
    40
100
AcDbLine
 10
110.5376641064376
 20
95.65257987693556
 30
0.0
 11
109.4276934844551
 21
94.8762736712789
 31
0.0
1001
REVIT
1002
{
1070
     3
1000
7518
1002
}
  0
LINE
  5
104
330
99
100
AcDbEntity
  8
G-IMPT
370
    40
100
AcDbLine
 10
109.4276934844551
 20
94.8762736712789
 30
0.0
 11
109.4276934844551
 21
95.65257987693556
 31
0.0
1001
REVIT
1002
{
1070
     3
1000
7518
1002
}
  0
HATCH
  5
105
330
99
100
AcDbEntity
  8
G-IMPT
370
    40
100
AcDbHatch
 10
0.0
 20
0.0
 30
0.0
210
0.0
220
0.0
230
1.0
  2
SOLID
 70
     1
 71
     0
 91
        1
 92
        0
 93
        3
 72
     1
 10
109.4276934844551
 20
95.65257987693556
 11
110.5376641064376
 21
95.65257987693556
 72
     1
 10
110.5376641064376
 20
95.65257987693556
 11
109.4276934844551
 21
94.8762736712789
 72
     1
 10
109.4276934844551
 20
94.8762736712789
 11
109.4276934844551
 21
95.65257987693556
 97
        0
 75
     0
 76
     1
 98
        1
 10
0.0
 20
0.0
450
        0
451
        0
460
0.0
461
0.0
452
        0
462
0.0
453
        0
470

1001
REVIT
1002
{
1070
     3
1000
7518
1002
}
  0
LINE
  5
106
330
99
100
AcDbEntity
  8
G-IMPT
370
    40
100
AcDbLine
 10
110.5376641064376
 20
95.65257987693556
 30
0.0
 11
109.4276934844551
 21
94.8762736712789
 31
0.0
1001
REVIT
1002
{
1070
     3
1000
7518
1002
}
  0
LINE
  5
107
330
99
100
AcDbEntity
  8
G-IMPT
370
    40
100
AcDbLine
 10
109.4276934844551
 20
94.8762736712789
 30
0.0
 11
110.5376641064376
 21
94.8762736712789
 31
0.0
1001
REVIT
1002
{
1070
     3
1000
7518
1002
}
  0
LINE
  5
108
330
99
100
AcDbEntity
  8
G-IMPT
370
    40
100
AcDbLine
 10
110.5376641064376
 20
94.8762736712789
 30
0.0
 11
110.5376641064376
 21
95.65257987693556
 31
0.0
1001
REVIT
1002
{
1070
     3
1000
7518
1002
}
  0
HATCH
  5
109
330
99
100
AcDbEntity
  8
G-IMPT
370
    40
100
AcDbHatch
 10
0.0
 20
0.0
 30
0.0
210
0.0
220
0.0
230
1.0
  2
SOLID
 70
     1
 71
     0
 91
        1
 92
        0
 93
        3
 72
     1
 10
110.5376641064376
 20
95.65257987693556
 11
109.4276934844551
 21
94.8762736712789
 72
     1
 10
109.4276934844551
 20
94.8762736712789
 11
110.5376641064376
 21
94.8762736712789
 72
     1
 10
110.5376641064376
 20
94.8762736712789
 11
110.5376641064376
 21
95.65257987693556
 97
        0
 75
     0
 76
     1
 98
        1
 10
0.0
 20
0.0
450
        0
451
        0
460
0.0
461
0.0
452
        0
462
0.0
453
        0
470

1001
REVIT
1002
{
1070
     3
1000
7518
1002
}
  0
LINE
  5
10A
330
99
100
AcDbEntity
  8
G-IMPT
370
    40
100
AcDbLine
 10
109.4276934844551
 20
94.8762736712789
 30
0.0
 11
110.5376641064376
 21
94.8762736712789
 31
0.0
1001
REVIT
1002
{
1070
     3
1000
7518
1002
}
  0
LINE
  5
10B
330
99
100
AcDbEntity
  8
G-IMPT
370
    40
100
AcDbLine
 10
110.5376641064376
 20
94.8762736712789
 30
0.0
 11
112.0651902311059
 21
94.23876867308901
 31
0.0
1001
REVIT
1002
{
1070
     3
1000
7518
1002
}
  0
LINE
  5
10C
330
99
100
AcDbEntity
  8
G-IMPT
370
    40
100
AcDbLine
 10
112.0651902311059
 20
94.23876867308901
 30
0.0
 11
109.4276934844551
 21
94.8762736712789
 31
0.0
1001
REVIT
1002
{
1070
     3
1000
7518
1002
}
  0
HATCH
  5
10D
330
99
100
AcDbEntity
  8
G-IMPT
370
    40
100
AcDbHatch
 10
0.0
 20
0.0
 30
0.0
210
0.0
220
0.0
230
1.0
  2
SOLID
 70
     1
 71
     0
 91
        1
 92
        0
 93
        3
 72
     1
 10
109.4276934844551
 20
94.8762736712789
 11
110.5376641064376
 21
94.8762736712789
 72
     1
 10
110.5376641064376
 20
94.8762736712789
 11
112.0651902311059
 21
94.23876867308901
 72
     1
 10
112.0651902311059
 20
94.23876867308901
 11
109.4276934844551
 21
94.8762736712789
 97
        0
 75
     0
 76
     1
 98
        1
 10
0.0
 20
0.0
450
        0
451
        0
460
0.0
461
0.0
452
        0
462
0.0
453
        0
470

1001
REVIT
1002
{
1070
     3
1000
7518
1002
}
  0
LINE
  5
10E
330
99
100
AcDbEntity
  8
G-IMPT
370
    40
100
AcDbLine
 10
110.5376641064376
 20
94.8762736712789
 30
0.0
 11
112.0651902311059
 21
94.23876867308901
 31
0.0
1001
REVIT
1002
{
1070
     3
1000
7518
1002
}
  0
LINE
  5
10F
330
99
100
AcDbEntity
  8
G-IMPT
370
    40
100
AcDbLine
 10
112.0651902311059
 20
94.23876867308901
 30
0.0
 11
111.6337716492705
 21
94.8762736712789
 31
0.0
1001
REVIT
1002
{
1070
     3
1000
7518
1002
}
  0
LINE
  5
110
330
99
100
AcDbEntity
  8
G-IMPT
370
    40
100
AcDbLine
 10
111.6337716492705
 20
94.8762736712789
 30
0.0
 11
110.5376641064376
 21
94.8762736712789
 31
0.0
1001
REVIT
1002
{
1070
     3
1000
7518
1002
}
  0
HATCH
  5
111
330
99
100
AcDbEntity
  8
G-IMPT
370
    40
100
AcDbHatch
 10
0.0
 20
0.0
 30
0.0
210
0.0
220
0.0
230
1.0
  2
SOLID
 70
     1
 71
     0
 91
        1
 92
        0
 93
        3
 72
     1
 10
110.5376641064376
 20
94.8762736712789
 11
112.0651902311059
 21
94.23876867308901
 72
     1
 10
112.0651902311059
 20
94.23876867308901
 11
111.6337716492705
 21
94.8762736712789
 72
     1
 10
111.6337716492705
 20
94.8762736712789
 11
110.5376641064376
 21
94.8762736712789
 97
        0
 75
     0
 76
     1
 98
        1
 10
0.0
 20
0.0
450
        0
451
        0
460
0.0
461
0.0
452
        0
462
0.0
453
        0
470

1001
REVIT
1002
{
1070
     3
1000
7518
1002
}
  0
LINE
  5
112
330
99
100
AcDbEntity
  8
G-IMPT
370
    40
100
AcDbLine
 10
107.7489755665506
 20
97.32668350807141
 30
0.0
 11
107.7489755665506
 21
98.08372069342192
 31
0.0
1001
REVIT
1002
{
1070
     3
1000
7518
1002
}
  0
LINE
  5
113
330
99
100
AcDbEntity
  8
G-IMPT
370
    40
100
AcDbLine
 10
107.7489755665506
 20
98.08372069342192
 30
0.0
 11
108.4915650597237
 21
97.90987849617081
 31
0.0
1001
REVIT
1002
{
1070
     3
1000
7518
1002
}
  0
LINE
  5
114
330
99
100
AcDbEntity
  8
G-IMPT
370
    40
100
AcDbLine
 10
108.4915650597237
 20
97.90987849617081
 30
0.0
 11
107.7489755665506
 21
97.32668350807141
 31
0.0
1001
REVIT
1002
{
1070
     3
1000
7518
1002
}
  0
HATCH
  5
115
330
99
100
AcDbEntity
  8
G-IMPT
370
    40
100
AcDbHatch
 10
0.0
 20
0.0
 30
0.0
210
0.0
220
0.0
230
1.0
  2
SOLID
 70
     1
 71
     0
 91
        1
 92
        0
 93
        3
 72
     1
 10
107.7489755665506
 20
97.32668350807141
 11
107.7489755665506
 21
98.08372069342192
 72
     1
 10
107.7489755665506
 20
98.08372069342192
 11
108.4915650597237
 21
97.90987849617081
 72
     1
 10
108.4915650597237
 20
97.90987849617081
 11
107.7489755665506
 21
97.32668350807141
 97
        0
 75
     0
 76
     1
 98
        1
 10
0.0
 20
0.0
450
        0
451
        0
460
0.0
461
0.0
452
        0
462
0.0
453
        0
470

1001
REVIT
1002
{
1070
     3
1000
7518
1002
}
  0
LINE
  5
116
330
99
100
AcDbEntity
  8
G-IMPT
370
    40
100
AcDbLine
 10
107.7489755665506
 20
97.32668350807141
 30
0.0
 11
108.4915650597237
 21
97.90987849617081
 31
0.0
1001
REVIT
1002
{
1070
     3
1000
7518
1002
}
  0
LINE
  5
117
330
99
100
AcDbEntity
  8
G-IMPT
370
    40
100
AcDbLine
 10
108.4915650597237
 20
97.90987849617081
 30
0.0
 11
108.397241392387
 21
97.78695349963818
 31
0.0
1001
REVIT
1002
{
1070
     3
1000
7518
1002
}
  0
LINE
  5
118
330
99
100
AcDbEntity
  8
G-IMPT
370
    40
100
AcDbLine
 10
108.397241392387
 20
97.78695349963818
 30
0.0
 11
107.7489755665506
 21
97.32668350807141
 31
0.0
1001
REVIT
1002
{
1070
     3
1000
7518
1002
}
  0
HATCH
  5
119
330
99
100
AcDbEntity
  8
G-IMPT
370
    40
100
AcDbHatch
 10
0.0
 20
0.0
 30
0.0
210
0.0
220
0.0
230
1.0
  2
SOLID
 70
     1
 71
     0
 91
        1
 92
        0
 93
        3
 72
     1
 10
107.7489755665506
 20
97.32668350807141
 11
108.4915650597237
 21
97.90987849617081
 72
     1
 10
108.4915650597237
 20
97.90987849617081
 11
108.397241392387
 21
97.78695349963818
 72
     1
 10
108.397241392387
 20
97.78695349963818
 11
107.7489755665506
 21
97.32668350807141
 97
        0
 75
     0
 76
     1
 98
        1
 10
0.0
 20
0.0
450
        0
451
        0
460
0.0
461
0.0
452
        0
462
0.0
453
        0
470

1001
REVIT
1002
{
1070
     3
1000
7518
1002
}
  0
LINE
  5
11A
330
99
100
AcDbEntity
  8
G-IMPT
370
    40
100
AcDbLine
 10
107.7489755665506
 20
97.32668350807141
 30
0.0
 11
108.397241392387
 21
97.78695349963818
 31
0.0
1001
REVIT
1002
{
1070
     3
1000
7518
1002
}
  0
LINE
  5
11B
330
99
100
AcDbEntity
  8
G-IMPT
370
    40
100
AcDbLine
 10
108.397241392387
 20
97.78695349963818
 30
0.0
 11
108.3379470562979
 21
97.64380430928015
 31
0.0
1001
REVIT
1002
{
1070
     3
1000
7518
1002
}
  0
LINE
  5
11C
330
99
100
AcDbEntity
  8
G-IMPT
370
    40
100
AcDbLine
 10
108.3379470562979
 20
97.64380430928015
 30
0.0
 11
107.7489755665506
 21
97.32668350807141
 31
0.0
1001
REVIT
1002
{
1070
     3
1000
7518
1002
}
  0
HATCH
  5
11D
330
99
100
AcDbEntity
  8
G-IMPT
370
    40
100
AcDbHatch
 10
0.0
 20
0.0
 30
0.0
210
0.0
220
0.0
230
1.0
  2
SOLID
 70
     1
 71
     0
 91
        1
 92
        0
 93
        3
 72
     1
 10
107.7489755665506
 20
97.32668350807141
 11
108.397241392387
 21
97.78695349963818
 72
     1
 10
108.397241392387
 20
97.78695349963818
 11
108.3379470562979
 21
97.64380430928015
 72
     1
 10
108.3379470562979
 20
97.64380430928015
 11
107.7489755665506
 21
97.32668350807141
 97
        0
 75
     0
 76
     1
 98
        1
 10
0.0
 20
0.0
450
        0
451
        0
460
0.0
461
0.0
452
        0
462
0.0
453
        0
470

1001
REVIT
1002
{
1070
     3
1000
7518
1002
}
  0
LINE
  5
11E
330
99
100
AcDbEntity
  8
G-IMPT
370
    40
100
AcDbLine
 10
107.7489755665506
 20
97.32668350807141
 30
0.0
 11
108.3379470562979
 21
97.64380430928015
 31
0.0
1001
REVIT
1002
{
1070
     3
1000
7518
1002
}
  0
LINE
  5
11F
330
99
100
AcDbEntity
  8
G-IMPT
370
    40
100
AcDbLine
 10
108.3379470562979
 20
97.64380430928015
 30
0.0
 11
108.3177228624726
 21
97.49018630585442
 31
0.0
1001
REVIT
1002
{
1070
     3
1000
7518
1002
}
  0
LINE
  5
120
330
99
100
AcDbEntity
  8
G-IMPT
370
    40
100
AcDbLine
 10
108.3177228624726
 20
97.49018630585442
 30
0.0
 11
107.7489755665506
 21
97.32668350807141
 31
0.0
1001
REVIT
1002
{
1070
     3
1000
7518
1002
}
  0
HATCH
  5
121
330
99
100
AcDbEntity
  8
G-IMPT
370
    40
100
AcDbHatch
 10
0.0
 20
0.0
 30
0.0
210
0.0
220
0.0
230
1.0
  2
SOLID
 70
     1
 71
     0
 91
        1
 92
        0
 93
        3
 72
     1
 10
107.7489755665506
 20
97.32668350807141
 11
108.3379470562979
 21
97.64380430928015
 72
     1
 10
108.3379470562979
 20
97.64380430928015
 11
108.3177228624726
 21
97.49018630585442
 72
     1
 10
108.3177228624726
 20
97.49018630585442
 11
107.7489755665506
 21
97.32668350807141
 97
        0
 75
     0
 76
     1
 98
        1
 10
0.0
 20
0.0
450
        0
451
        0
460
0.0
461
0.0
452
        0
462
0.0
453
        0
470

1001
REVIT
1002
{
1070
     3
1000
7518
1002
}
  0
LINE
  5
122
330
99
100
AcDbEntity
  8
G-IMPT
370
    40
100
AcDbLine
 10
107.7489755665506
 20
97.32668350807141
 30
0.0
 11
108.3177228624726
 21
97.49018630585442
 31
0.0
1001
REVIT
1002
{
1070
     3
1000
7518
1002
}
  0
LINE
  5
123
330
99
100
AcDbEntity
  8
G-IMPT
370
    40
100
AcDbLine
 10
108.3177228624726
 20
97.49018630585442
 30
0.0
 11
108.3177228624726
 21
94.8762736712789
 31
0.0
1001
REVIT
1002
{
1070
     3
1000
7518
1002
}
  0
LINE
  5
124
330
99
100
AcDbEntity
  8
G-IMPT
370
    40
100
AcDbLine
 10
108.3177228624726
 20
94.8762736712789
 30
0.0
 11
107.7489755665506
 21
97.32668350807141
 31
0.0
1001
REVIT
1002
{
1070
     3
1000
7518
1002
}
  0
HATCH
  5
125
330
99
100
AcDbEntity
  8
G-IMPT
370
    40
100
AcDbHatch
 10
0.0
 20
0.0
 30
0.0
210
0.0
220
0.0
230
1.0
  2
SOLID
 70
     1
 71
     0
 91
        1
 92
        0
 93
        3
 72
     1
 10
107.7489755665506
 20
97.32668350807141
 11
108.3177228624726
 21
97.49018630585442
 72
     1
 10
108.3177228624726
 20
97.49018630585442
 11
108.3177228624726
 21
94.8762736712789
 72
     1
 10
108.3177228624726
 20
94.8762736712789
 11
107.7489755665506
 21
97.32668350807141
 97
        0
 75
     0
 76
     1
 98
        1
 10
0.0
 20
0.0
450
        0
451
        0
460
0.0
461
0.0
452
        0
462
0.0
453
        0
470

1001
REVIT
1002
{
1070
     3
1000
7518
1002
}
  0
LINE
  5
126
330
99
100
AcDbEntity
  8
G-IMPT
370
    40
100
AcDbLine
 10
112.0651902311059
 20
94.23876867308901
 30
0.0
 11
95.03871966513925
 21
94.23876867308901
 31
0.0
1001
REVIT
1002
{
1070
     3
1000
7518
1002
}
  0
LINE
  5
127
330
99
100
AcDbEntity
  8
G-IMPT
370
    40
100
AcDbLine
 10
95.03871966513925
 20
94.23876867308901
 30
0.0
 11
95.45708232020137
 21
94.8762736712789
 31
0.0
1001
REVIT
1002
{
1070
     3
1000
7518
1002
}
  0
LINE
  5
128
330
99
100
AcDbEntity
  8
G-IMPT
370
    40
100
AcDbLine
 10
95.45708232020137
 20
94.8762736712789
 30
0.0
 11
112.0651902311059
 21
94.23876867308901
 31
0.0
1001
REVIT
1002
{
1070
     3
1000
7518
1002
}
  0
HATCH
  5
129
330
99
100
AcDbEntity
  8
G-IMPT
370
    40
100
AcDbHatch
 10
0.0
 20
0.0
 30
0.0
210
0.0
220
0.0
230
1.0
  2
SOLID
 70
     1
 71
     0
 91
        1
 92
        0
 93
        3
 72
     1
 10
112.0651902311059
 20
94.23876867308901
 11
95.03871966513925
 21
94.23876867308901
 72
     1
 10
95.03871966513925
 20
94.23876867308901
 11
95.45708232020137
 21
94.8762736712789
 72
     1
 10
95.45708232020137
 20
94.8762736712789
 11
112.0651902311059
 21
94.23876867308901
 97
        0
 75
     0
 76
     1
 98
        1
 10
0.0
 20
0.0
450
        0
451
        0
460
0.0
461
0.0
452
        0
462
0.0
453
        0
470

1001
REVIT
1002
{
1070
     3
1000
7518
1002
}
  0
LINE
  5
12A
330
99
100
AcDbEntity
  8
G-IMPT
370
    40
100
AcDbLine
 10
112.0651902311059
 20
94.23876867308901
 30
0.0
 11
95.45708232020137
 21
94.8762736712789
 31
0.0
1001
REVIT
1002
{
1070
     3
1000
7518
1002
}
  0
LINE
  5
12B
330
99
100
AcDbEntity
  8
G-IMPT
370
    40
100
AcDbLine
 10
95.45708232020137
 20
94.8762736712789
 30
0.0
 11
96.6723262230009
 21
94.8762736712789
 31
0.0
1001
REVIT
1002
{
1070
     3
1000
7518
1002
}
  0
LINE
  5
12C
330
99
100
AcDbEntity
  8
G-IMPT
370
    40
100
AcDbLine
 10
96.6723262230009
 20
94.8762736712789
 30
0.0
 11
112.0651902311059
 21
94.23876867308901
 31
0.0
1001
REVIT
1002
{
1070
     3
1000
7518
1002
}
  0
HATCH
  5
12D
330
99
100
AcDbEntity
  8
G-IMPT
370
    40
100
AcDbHatch
 10
0.0
 20
0.0
 30
0.0
210
0.0
220
0.0
230
1.0
  2
SOLID
 70
     1
 71
     0
 91
        1
 92
        0
 93
        3
 72
     1
 10
112.0651902311059
 20
94.23876867308901
 11
95.45708232020137
 21
94.8762736712789
 72
     1
 10
95.45708232020137
 20
94.8762736712789
 11
96.6723262230009
 21
94.8762736712789
 72
     1
 10
96.6723262230009
 20
94.8762736712789
 11
112.0651902311059
 21
94.23876867308901
 97
        0
 75
     0
 76
     1
 98
        1
 10
0.0
 20
0.0
450
        0
451
        0
460
0.0
461
0.0
452
        0
462
0.0
453
        0
470

1001
REVIT
1002
{
1070
     3
1000
7518
1002
}
  0
LINE
  5
12E
330
99
100
AcDbEntity
  8
G-IMPT
370
    40
100
AcDbLine
 10
112.0651902311059
 20
94.23876867308901
 30
0.0
 11
96.6723262230009
 21
94.8762736712789
 31
0.0
1001
REVIT
1002
{
1070
     3
1000
7518
1002
}
  0
LINE
  5
12F
330
99
100
AcDbEntity
  8
G-IMPT
370
    40
100
AcDbLine
 10
96.6723262230009
 20
94.8762736712789
 30
0.0
 11
97.26998715880394
 21
94.8762736712789
 31
0.0
1001
REVIT
1002
{
1070
     3
1000
7518
1002
}
  0
LINE
  5
130
330
99
100
AcDbEntity
  8
G-IMPT
370
    40
100
AcDbLine
 10
97.26998715880394
 20
94.8762736712789
 30
0.0
 11
112.0651902311059
 21
94.23876867308901
 31
0.0
1001
REVIT
1002
{
1070
     3
1000
7518
1002
}
  0
HATCH
  5
131
330
99
100
AcDbEntity
  8
G-IMPT
370
    40
100
AcDbHatch
 10
0.0
 20
0.0
 30
0.0
210
0.0
220
0.0
230
1.0
  2
SOLID
 70
     1
 71
     0
 91
        1
 92
        0
 93
        3
 72
     1
 10
112.0651902311059
 20
94.23876867308901
 11
96.6723262230009
 21
94.8762736712789
 72
     1
 10
96.6723262230009
 20
94.8762736712789
 11
97.26998715880394
 21
94.8762736712789
 72
     1
 10
97.26998715880394
 20
94.8762736712789
 11
112.0651902311059
 21
94.23876867308901
 97
        0
 75
     0
 76
     1
 98
        1
 10
0.0
 20
0.0
450
        0
451
        0
460
0.0
461
0.0
452
        0
462
0.0
453
        0
470

1001
REVIT
1002
{
1070
     3
1000
7518
1002
}
  0
LINE
  5
132
330
99
100
AcDbEntity
  8
G-IMPT
370
    40
100
AcDbLine
 10
112.0651902311059
 20
94.23876867308901
 30
0.0
 11
97.26998715880394
 21
94.8762736712789
 31
0.0
1001
REVIT
1002
{
1070
     3
1000
7518
1002
}
  0
LINE
  5
133
330
99
100
AcDbEntity
  8
G-IMPT
370
    40
100
AcDbLine
 10
97.26998715880394
 20
94.8762736712789
 30
0.0
 11
98.14655653131509
 21
94.8762736712789
 31
0.0
1001
REVIT
1002
{
1070
     3
1000
7518
1002
}
  0
LINE
  5
134
330
99
100
AcDbEntity
  8
G-IMPT
370
    40
100
AcDbLine
 10
98.14655653131509
 20
94.8762736712789
 30
0.0
 11
112.0651902311059
 21
94.23876867308901
 31
0.0
1001
REVIT
1002
{
1070
     3
1000
7518
1002
}
  0
HATCH
  5
135
330
99
100
AcDbEntity
  8
G-IMPT
370
    40
100
AcDbHatch
 10
0.0
 20
0.0
 30
0.0
210
0.0
220
0.0
230
1.0
  2
SOLID
 70
     1
 71
     0
 91
        1
 92
        0
 93
        3
 72
     1
 10
112.0651902311059
 20
94.23876867308901
 11
97.26998715880394
 21
94.8762736712789
 72
     1
 10
97.26998715880394
 20
94.8762736712789
 11
98.14655653131509
 21
94.8762736712789
 72
     1
 10
98.14655653131509
 20
94.8762736712789
 11
112.0651902311059
 21
94.23876867308901
 97
        0
 75
     0
 76
     1
 98
        1
 10
0.0
 20
0.0
450
        0
451
        0
460
0.0
461
0.0
452
        0
462
0.0
453
        0
470

1001
REVIT
1002
{
1070
     3
1000
7518
1002
}
  0
LINE
  5
136
330
99
100
AcDbEntity
  8
G-IMPT
370
    40
100
AcDbLine
 10
112.0651902311059
 20
94.23876867308901
 30
0.0
 11
98.14655653131509
 21
94.8762736712789
 31
0.0
1001
REVIT
1002
{
1070
     3
1000
7518
1002
}
  0
LINE
  5
137
330
99
100
AcDbEntity
  8
G-IMPT
370
    40
100
AcDbLine
 10
98.14655653131509
 20
94.8762736712789
 30
0.0
 11
98.74421746711812
 21
94.8762736712789
 31
0.0
1001
REVIT
1002
{
1070
     3
1000
7518
1002
}
  0
LINE
  5
138
330
99
100
AcDbEntity
  8
G-IMPT
370
    40
100
AcDbLine
 10
98.74421746711812
 20
94.8762736712789
 30
0.0
 11
112.0651902311059
 21
94.23876867308901
 31
0.0
1001
REVIT
1002
{
1070
     3
1000
7518
1002
}
  0
HATCH
  5
139
330
99
100
AcDbEntity
  8
G-IMPT
370
    40
100
AcDbHatch
 10
0.0
 20
0.0
 30
0.0
210
0.0
220
0.0
230
1.0
  2
SOLID
 70
     1
 71
     0
 91
        1
 92
        0
 93
        3
 72
     1
 10
112.0651902311059
 20
94.23876867308901
 11
98.14655653131509
 21
94.8762736712789
 72
     1
 10
98.14655653131509
 20
94.8762736712789
 11
98.74421746711812
 21
94.8762736712789
 72
     1
 10
98.74421746711812
 20
94.8762736712789
 11
112.0651902311059
 21
94.23876867308901
 97
        0
 75
     0
 76
     1
 98
        1
 10
0.0
 20
0.0
450
        0
451
        0
460
0.0
461
0.0
452
        0
462
0.0
453
        0
470

1001
REVIT
1002
{
1070
     3
1000
7518
1002
}
  0
LINE
  5
13A
330
99
100
AcDbEntity
  8
G-IMPT
370
    40
100
AcDbLine
 10
112.0651902311059
 20
94.23876867308901
 30
0.0
 11
98.74421746711812
 21
94.8762736712789
 31
0.0
1001
REVIT
1002
{
1070
     3
1000
7518
1002
}
  0
LINE
  5
13B
330
99
100
AcDbEntity
  8
G-IMPT
370
    40
100
AcDbLine
 10
98.74421746711812
 20
94.8762736712789
 30
0.0
 11
99.95946136991769
 21
94.8762736712789
 31
0.0
1001
REVIT
1002
{
1070
     3
1000
7518
1002
}
  0
LINE
  5
13C
330
99
100
AcDbEntity
  8
G-IMPT
370
    40
100
AcDbLine
 10
99.95946136991769
 20
94.8762736712789
 30
0.0
 11
112.0651902311059
 21
94.23876867308901
 31
0.0
1001
REVIT
1002
{
1070
     3
1000
7518
1002
}
  0
HATCH
  5
13D
330
99
100
AcDbEntity
  8
G-IMPT
370
    40
100
AcDbHatch
 10
0.0
 20
0.0
 30
0.0
210
0.0
220
0.0
230
1.0
  2
SOLID
 70
     1
 71
     0
 91
        1
 92
        0
 93
        3
 72
     1
 10
112.0651902311059
 20
94.23876867308901
 11
98.74421746711812
 21
94.8762736712789
 72
     1
 10
98.74421746711812
 20
94.8762736712789
 11
99.95946136991769
 21
94.8762736712789
 72
     1
 10
99.95946136991769
 20
94.8762736712789
 11
112.0651902311059
 21
94.23876867308901
 97
        0
 75
     0
 76
     1
 98
        1
 10
0.0
 20
0.0
450
        0
451
        0
460
0.0
461
0.0
452
        0
462
0.0
453
        0
470

1001
REVIT
1002
{
1070
     3
1000
7518
1002
}
  0
LINE
  5
13E
330
99
100
AcDbEntity
  8
G-IMPT
370
    40
100
AcDbLine
 10
112.0651902311059
 20
94.23876867308901
 30
0.0
 11
99.95946136991769
 21
94.8762736712789
 31
0.0
1001
REVIT
1002
{
1070
     3
1000
7518
1002
}
  0
LINE
  5
13F
330
99
100
AcDbEntity
  8
G-IMPT
370
    40
100
AcDbLine
 10
99.95946136991769
 20
94.8762736712789
 30
0.0
 11
100.7961866800419
 21
94.8762736712789
 31
0.0
1001
REVIT
1002
{
1070
     3
1000
7518
1002
}
  0
LINE
  5
140
330
99
100
AcDbEntity
  8
G-IMPT
370
    40
100
AcDbLine
 10
100.7961866800419
 20
94.8762736712789
 30
0.0
 11
112.0651902311059
 21
94.23876867308901
 31
0.0
1001
REVIT
1002
{
1070
     3
1000
7518
1002
}
  0
HATCH
  5
141
330
99
100
AcDbEntity
  8
G-IMPT
370
    40
100
AcDbHatch
 10
0.0
 20
0.0
 30
0.0
210
0.0
220
0.0
230
1.0
  2
SOLID
 70
     1
 71
     0
 91
        1
 92
        0
 93
        3
 72
     1
 10
112.0651902311059
 20
94.23876867308901
 11
99.95946136991769
 21
94.8762736712789
 72
     1
 10
99.95946136991769
 20
94.8762736712789
 11
100.7961866800419
 21
94.8762736712789
 72
     1
 10
100.7961866800419
 20
94.8762736712789
 11
112.0651902311059
 21
94.23876867308901
 97
        0
 75
     0
 76
     1
 98
        1
 10
0.0
 20
0.0
450
        0
451
        0
460
0.0
461
0.0
452
        0
462
0.0
453
        0
470

1001
REVIT
1002
{
1070
     3
1000
7518
1002
}
  0
LINE
  5
142
330
99
100
AcDbEntity
  8
G-IMPT
370
    40
100
AcDbLine
 10
112.0651902311059
 20
94.23876867308901
 30
0.0
 11
100.7961866800419
 21
94.8762736712789
 31
0.0
1001
REVIT
1002
{
1070
     3
1000
7518
1002
}
  0
LINE
  5
143
330
99
100
AcDbEntity
  8
G-IMPT
370
    40
100
AcDbLine
 10
100.7961866800419
 20
94.8762736712789
 30
0.0
 11
103.9040235462177
 21
94.8762736712789
 31
0.0
1001
REVIT
1002
{
1070
     3
1000
7518
1002
}
  0
LINE
  5
144
330
99
100
AcDbEntity
  8
G-IMPT
370
    40
100
AcDbLine
 10
103.9040235462177
 20
94.8762736712789
 30
0.0
 11
112.0651902311059
 21
94.23876867308901
 31
0.0
1001
REVIT
1002
{
1070
     3
1000
7518
1002
}
  0
HATCH
  5
145
330
99
100
AcDbEntity
  8
G-IMPT
370
    40
100
AcDbHatch
 10
0.0
 20
0.0
 30
0.0
210
0.0
220
0.0
230
1.0
  2
SOLID
 70
     1
 71
     0
 91
        1
 92
        0
 93
        3
 72
     1
 10
112.0651902311059
 20
94.23876867308901
 11
100.7961866800419
 21
94.8762736712789
 72
     1
 10
100.7961866800419
 20
94.8762736712789
 11
103.9040235462177
 21
94.8762736712789
 72
     1
 10
103.9040235462177
 20
94.8762736712789
 11
112.0651902311059
 21
94.23876867308901
 97
        0
 75
     0
 76
     1
 98
        1
 10
0.0
 20
0.0
450
        0
451
        0
460
0.0
461
0.0
452
        0
462
0.0
453
        0
470

1001
REVIT
1002
{
1070
     3
1000
7518
1002
}
  0
LINE
  5
146
330
99
100
AcDbEntity
  8
G-IMPT
370
    40
100
AcDbLine
 10
97.70827184505954
 20
96.39477516002296
 30
0.0
 11
97.28990918999741
 21
98.08372069342192
 31
0.0
1001
REVIT
1002
{
1070
     3
1000
7518
1002
}
  0
LINE
  5
147
330
99
100
AcDbEntity
  8
G-IMPT
370
    40
100
AcDbLine
 10
97.28990918999741
 20
98.08372069342192
 30
0.0
 11
98.12663450012166
 21
98.08372069342192
 31
0.0
1001
REVIT
1002
{
1070
     3
1000
7518
1002
}
  0
LINE
  5
148
330
99
100
AcDbEntity
  8
G-IMPT
370
    40
100
AcDbLine
 10
98.12663450012166
 20
98.08372069342192
 30
0.0
 11
97.70827184505954
 21
96.39477516002296
 31
0.0
1001
REVIT
1002
{
1070
     3
1000
7518
1002
}
  0
HATCH
  5
149
330
99
100
AcDbEntity
  8
G-IMPT
370
    40
100
AcDbHatch
 10
0.0
 20
0.0
 30
0.0
210
0.0
220
0.0
230
1.0
  2
SOLID
 70
     1
 71
     0
 91
        1
 92
        0
 93
        3
 72
     1
 10
97.70827184505954
 20
96.39477516002296
 11
97.28990918999741
 21
98.08372069342192
 72
     1
 10
97.28990918999741
 20
98.08372069342192
 11
98.12663450012166
 21
98.08372069342192
 72
     1
 10
98.12663450012166
 20
98.08372069342192
 11
97.70827184505954
 21
96.39477516002296
 97
        0
 75
     0
 76
     1
 98
        1
 10
0.0
 20
0.0
450
        0
451
        0
460
0.0
461
0.0
452
        0
462
0.0
453
        0
470

1001
REVIT
1002
{
1070
     3
1000
7518
1002
}
  0
LINE
  5
14A
330
99
100
AcDbEntity
  8
G-IMPT
370
    40
100
AcDbLine
 10
97.28990918999741
 20
98.08372069342192
 30
0.0
 11
98.12663450012166
 21
98.08372069342192
 31
0.0
1001
REVIT
1002
{
1070
     3
1000
7518
1002
}
  0
LINE
  5
14B
330
99
100
AcDbEntity
  8
G-IMPT
370
    40
100
AcDbLine
 10
98.12663450012166
 20
98.08372069342192
 30
0.0
 11
112.0651902311059
 21
98.72122569161179
 31
0.0
1001
REVIT
1002
{
1070
     3
1000
7518
1002
}
  0
LINE
  5
14C
330
99
100
AcDbEntity
  8
G-IMPT
370
    40
100
AcDbLine
 10
112.0651902311059
 20
98.72122569161179
 30
0.0
 11
97.28990918999741
 21
98.08372069342192
 31
0.0
1001
REVIT
1002
{
1070
     3
1000
7518
1002
}
  0
HATCH
  5
14D
330
99
100
AcDbEntity
  8
G-IMPT
370
    40
100
AcDbHatch
 10
0.0
 20
0.0
 30
0.0
210
0.0
220
0.0
230
1.0
  2
SOLID
 70
     1
 71
     0
 91
        1
 92
        0
 93
        3
 72
     1
 10
97.28990918999741
 20
98.08372069342192
 11
98.12663450012166
 21
98.08372069342192
 72
     1
 10
98.12663450012166
 20
98.08372069342192
 11
112.0651902311059
 21
98.72122569161179
 72
     1
 10
112.0651902311059
 20
98.72122569161179
 11
97.28990918999741
 21
98.08372069342192
 97
        0
 75
     0
 76
     1
 98
        1
 10
0.0
 20
0.0
450
        0
451
        0
460
0.0
461
0.0
452
        0
462
0.0
453
        0
470

1001
REVIT
1002
{
1070
     3
1000
7518
1002
}
  0
LINE
  5
14E
330
99
100
AcDbEntity
  8
G-IMPT
370
    40
100
AcDbLine
 10
98.12663450012166
 20
98.08372069342192
 30
0.0
 11
112.0651902311059
 21
98.72122569161179
 31
0.0
1001
REVIT
1002
{
1070
     3
1000
7518
1002
}
  0
LINE
  5
14F
330
99
100
AcDbEntity
  8
G-IMPT
370
    40
100
AcDbLine
 10
112.0651902311059
 20
98.72122569161179
 30
0.0
 11
99.95946136991769
 21
98.08372069342192
 31
0.0
1001
REVIT
1002
{
1070
     3
1000
7518
1002
}
  0
LINE
  5
150
330
99
100
AcDbEntity
  8
G-IMPT
370
    40
100
AcDbLine
 10
99.95946136991769
 20
98.08372069342192
 30
0.0
 11
98.12663450012166
 21
98.08372069342192
 31
0.0
1001
REVIT
1002
{
1070
     3
1000
7518
1002
}
  0
HATCH
  5
151
330
99
100
AcDbEntity
  8
G-IMPT
370
    40
100
AcDbHatch
 10
0.0
 20
0.0
 30
0.0
210
0.0
220
0.0
230
1.0
  2
SOLID
 70
     1
 71
     0
 91
        1
 92
        0
 93
        3
 72
     1
 10
98.12663450012166
 20
98.08372069342192
 11
112.0651902311059
 21
98.72122569161179
 72
     1
 10
112.0651902311059
 20
98.72122569161179
 11
99.95946136991769
 21
98.08372069342192
 72
     1
 10
99.95946136991769
 20
98.08372069342192
 11
98.12663450012166
 21
98.08372069342192
 97
        0
 75
     0
 76
     1
 98
        1
 10
0.0
 20
0.0
450
        0
451
        0
460
0.0
461
0.0
452
        0
462
0.0
453
        0
470

1001
REVIT
1002
{
1070
     3
1000
7518
1002
}
  0
LINE
  5
152
330
99
100
AcDbEntity
  8
G-IMPT
370
    40
100
AcDbLine
 10
112.0651902311059
 20
98.72122569161179
 30
0.0
 11
99.95946136991769
 21
98.08372069342192
 31
0.0
1001
REVIT
1002
{
1070
     3
1000
7518
1002
}
  0
LINE
  5
153
330
99
100
AcDbEntity
  8
G-IMPT
370
    40
100
AcDbLine
 10
99.95946136991769
 20
98.08372069342192
 30
0.0
 11
100.7961866800419
 21
98.08372069342192
 31
0.0
1001
REVIT
1002
{
1070
     3
1000
7518
1002
}
  0
LINE
  5
154
330
99
100
AcDbEntity
  8
G-IMPT
370
    40
100
AcDbLine
 10
100.7961866800419
 20
98.08372069342192
 30
0.0
 11
112.0651902311059
 21
98.72122569161179
 31
0.0
1001
REVIT
1002
{
1070
     3
1000
7518
1002
}
  0
HATCH
  5
155
330
99
100
AcDbEntity
  8
G-IMPT
370
    40
100
AcDbHatch
 10
0.0
 20
0.0
 30
0.0
210
0.0
220
0.0
230
1.0
  2
SOLID
 70
     1
 71
     0
 91
        1
 92
        0
 93
        3
 72
     1
 10
112.0651902311059
 20
98.72122569161179
 11
99.95946136991769
 21
98.08372069342192
 72
     1
 10
99.95946136991769
 20
98.08372069342192
 11
100.7961866800419
 21
98.08372069342192
 72
     1
 10
100.7961866800419
 20
98.08372069342192
 11
112.0651902311059
 21
98.72122569161179
 97
        0
 75
     0
 76
     1
 98
        1
 10
0.0
 20
0.0
450
        0
451
        0
460
0.0
461
0.0
452
        0
462
0.0
453
        0
470

1001
REVIT
1002
{
1070
     3
1000
7518
1002
}
  0
LINE
  5
156
330
99
100
AcDbEntity
  8
G-IMPT
370
    40
100
AcDbLine
 10
99.95946136991769
 20
98.08372069342192
 30
0.0
 11
100.7961866800419
 21
98.08372069342192
 31
0.0
1001
REVIT
1002
{
1070
     3
1000
7518
1002
}
  0
LINE
  5
157
330
99
100
AcDbEntity
  8
G-IMPT
370
    40
100
AcDbLine
 10
100.7961866800419
 20
98.08372069342192
 30
0.0
 11
99.95946136991769
 21
94.8762736712789
 31
0.0
1001
REVIT
1002
{
1070
     3
1000
7518
1002
}
  0
LINE
  5
158
330
99
100
AcDbEntity
  8
G-IMPT
370
    40
100
AcDbLine
 10
99.95946136991769
 20
94.8762736712789
 30
0.0
 11
99.95946136991769
 21
98.08372069342192
 31
0.0
1001
REVIT
1002
{
1070
     3
1000
7518
1002
}
  0
HATCH
  5
159
330
99
100
AcDbEntity
  8
G-IMPT
370
    40
100
AcDbHatch
 10
0.0
 20
0.0
 30
0.0
210
0.0
220
0.0
230
1.0
  2
SOLID
 70
     1
 71
     0
 91
        1
 92
        0
 93
        3
 72
     1
 10
99.95946136991769
 20
98.08372069342192
 11
100.7961866800419
 21
98.08372069342192
 72
     1
 10
100.7961866800419
 20
98.08372069342192
 11
99.95946136991769
 21
94.8762736712789
 72
     1
 10
99.95946136991769
 20
94.8762736712789
 11
99.95946136991769
 21
98.08372069342192
 97
        0
 75
     0
 76
     1
 98
        1
 10
0.0
 20
0.0
450
        0
451
        0
460
0.0
461
0.0
452
        0
462
0.0
453
        0
470

1001
REVIT
1002
{
1070
     3
1000
7518
1002
}
  0
LINE
  5
15A
330
99
100
AcDbEntity
  8
G-IMPT
370
    40
100
AcDbLine
 10
100.7961866800419
 20
98.08372069342192
 30
0.0
 11
99.95946136991769
 21
94.8762736712789
 31
0.0
1001
REVIT
1002
{
1070
     3
1000
7518
1002
}
  0
LINE
  5
15B
330
99
100
AcDbEntity
  8
G-IMPT
370
    40
100
AcDbLine
 10
99.95946136991769
 20
94.8762736712789
 30
0.0
 11
100.7961866800419
 21
94.8762736712789
 31
0.0
1001
REVIT
1002
{
1070
     3
1000
7518
1002
}
  0
LINE
  5
15C
330
99
100
AcDbEntity
  8
G-IMPT
370
    40
100
AcDbLine
 10
100.7961866800419
 20
94.8762736712789
 30
0.0
 11
100.7961866800419
 21
98.08372069342192
 31
0.0
1001
REVIT
1002
{
1070
     3
1000
7518
1002
}
  0
HATCH
  5
15D
330
99
100
AcDbEntity
  8
G-IMPT
370
    40
100
AcDbHatch
 10
0.0
 20
0.0
 30
0.0
210
0.0
220
0.0
230
1.0
  2
SOLID
 70
     1
 71
     0
 91
        1
 92
        0
 93
        3
 72
     1
 10
100.7961866800419
 20
98.08372069342192
 11
99.95946136991769
 21
94.8762736712789
 72
     1
 10
99.95946136991769
 20
94.8762736712789
 11
100.7961866800419
 21
94.8762736712789
 72
     1
 10
100.7961866800419
 20
94.8762736712789
 11
100.7961866800419
 21
98.08372069342192
 97
        0
 75
     0
 76
     1
 98
        1
 10
0.0
 20
0.0
450
        0
451
        0
460
0.0
461
0.0
452
        0
462
0.0
453
        0
470

1001
REVIT
1002
{
1070
     3
1000
7518
1002
}
  0
LINE
  5
15E
330
99
100
AcDbEntity
  8
G-IMPT
370
    40
100
AcDbLine
 10
93.95524728941461
 20
99.88425902345477
 30
0.0
 11
94.05098514919862
 21
99.89981807464666
 31
0.0
1001
REVIT
1002
{
1070
     3
1000
7518
1002
}
  0
LINE
  5
15F
330
99
100
AcDbEntity
  8
G-IMPT
370
    40
100
AcDbLine
 10
94.05098514919862
 20
99.89981807464666
 30
0.0
 11
94.05098514919862
 21
93.06017629005411
 31
0.0
1001
REVIT
1002
{
1070
     3
1000
7518
1002
}
  0
LINE
  5
160
330
99
100
AcDbEntity
  8
G-IMPT
370
    40
100
AcDbLine
 10
94.05098514919862
 20
93.06017629005411
 30
0.0
 11
93.95524728941461
 21
99.88425902345477
 31
0.0
1001
REVIT
1002
{
1070
     3
1000
7518
1002
}
  0
HATCH
  5
161
330
99
100
AcDbEntity
  8
G-IMPT
370
    40
100
AcDbHatch
 10
0.0
 20
0.0
 30
0.0
210
0.0
220
0.0
230
1.0
  2
SOLID
 70
     1
 71
     0
 91
        1
 92
        0
 93
        3
 72
     1
 10
93.95524728941461
 20
99.88425902345477
 11
94.05098514919862
 21
99.89981807464666
 72
     1
 10
94.05098514919862
 20
99.89981807464666
 11
94.05098514919862
 21
93.06017629005411
 72
     1
 10
94.05098514919862
 20
93.06017629005411
 11
93.95524728941461
 21
99.88425902345477
 97
        0
 75
     0
 76
     1
 98
        1
 10
0.0
 20
0.0
450
        0
451
        0
460
0.0
461
0.0
452
        0
462
0.0
453
        0
470

1001
REVIT
1002
{
1070
     3
1000
7518
1002
}
  0
LINE
  5
162
330
99
100
AcDbEntity
  8
G-IMPT
370
    40
100
AcDbLine
 10
94.05098514919862
 20
99.89981807464666
 30
0.0
 11
94.05098514919862
 21
93.06017629005411
 31
0.0
1001
REVIT
1002
{
1070
     3
1000
7518
1002
}
  0
LINE
  5
163
330
99
100
AcDbEntity
  8
G-IMPT
370
    40
100
AcDbLine
 10
94.05098514919862
 20
93.06017629005411
 30
0.0
 11
94.14753989508641
 21
99.89059837201843
 31
0.0
1001
REVIT
1002
{
1070
     3
1000
7518
1002
}
  0
LINE
  5
164
330
99
100
AcDbEntity
  8
G-IMPT
370
    40
100
AcDbLine
 10
94.14753989508641
 20
99.89059837201843
 30
0.0
 11
94.05098514919862
 21
99.89981807464666
 31
0.0
1001
REVIT
1002
{
1070
     3
1000
7518
1002
}
  0
HATCH
  5
165
330
99
100
AcDbEntity
  8
G-IMPT
370
    40
100
AcDbHatch
 10
0.0
 20
0.0
 30
0.0
210
0.0
220
0.0
230
1.0
  2
SOLID
 70
     1
 71
     0
 91
        1
 92
        0
 93
        3
 72
     1
 10
94.05098514919862
 20
99.89981807464666
 11
94.05098514919862
 21
93.06017629005411
 72
     1
 10
94.05098514919862
 20
93.06017629005411
 11
94.14753989508641
 21
99.89059837201843
 72
     1
 10
94.14753989508641
 20
99.89059837201843
 11
94.05098514919862
 21
99.89981807464666
 97
        0
 75
     0
 76
     1
 98
        1
 10
0.0
 20
0.0
450
        0
451
        0
460
0.0
461
0.0
452
        0
462
0.0
453
        0
470

1001
REVIT
1002
{
1070
     3
1000
7518
1002
}
  0
LINE
  5
166
330
99
100
AcDbEntity
  8
G-IMPT
370
    40
100
AcDbLine
 10
94.05098514919862
 20
93.06017629005411
 30
0.0
 11
94.14753989508641
 21
99.89059837201843
 31
0.0
1001
REVIT
1002
{
1070
     3
1000
7518
1002
}
  0
LINE
  5
167
330
99
100
AcDbEntity
  8
G-IMPT
370
    40
100
AcDbLine
 10
94.14753989508641
 20
99.89059837201843
 30
0.0
 11
94.14753989508641
 21
93.06939599268233
 31
0.0
1001
REVIT
1002
{
1070
     3
1000
7518
1002
}
  0
LINE
  5
168
330
99
100
AcDbEntity
  8
G-IMPT
370
    40
100
AcDbLine
 10
94.14753989508641
 20
93.06939599268233
 30
0.0
 11
94.05098514919862
 21
93.06017629005411
 31
0.0
1001
REVIT
1002
{
1070
     3
1000
7518
1002
}
  0
HATCH
  5
169
330
99
100
AcDbEntity
  8
G-IMPT
370
    40
100
AcDbHatch
 10
0.0
 20
0.0
 30
0.0
210
0.0
220
0.0
230
1.0
  2
SOLID
 70
     1
 71
     0
 91
        1
 92
        0
 93
        3
 72
     1
 10
94.05098514919862
 20
93.06017629005411
 11
94.14753989508641
 21
99.89059837201843
 72
     1
 10
94.14753989508641
 20
99.89059837201843
 11
94.14753989508641
 21
93.06939599268233
 72
     1
 10
94.14753989508641
 20
93.06939599268233
 11
94.05098514919862
 21
93.06017629005411
 97
        0
 75
     0
 76
     1
 98
        1
 10
0.0
 20
0.0
450
        0
451
        0
460
0.0
461
0.0
452
        0
462
0.0
453
        0
470

1001
REVIT
1002
{
1070
     3
1000
7518
1002
}
  0
LINE
  5
16A
330
99
100
AcDbEntity
  8
G-IMPT
370
    40
100
AcDbLine
 10
94.14753989508641
 20
99.89059837201843
 30
0.0
 11
94.14753989508641
 21
93.06939599268233
 31
0.0
1001
REVIT
1002
{
1070
     3
1000
7518
1002
}
  0
LINE
  5
16B
330
99
100
AcDbEntity
  8
G-IMPT
370
    40
100
AcDbLine
 10
94.14753989508641
 20
93.06939599268233
 30
0.0
 11
94.23860318534167
 21
99.85720227886522
 31
0.0
1001
REVIT
1002
{
1070
     3
1000
7518
1002
}
  0
LINE
  5
16C
330
99
100
AcDbEntity
  8
G-IMPT
370
    40
100
AcDbLine
 10
94.23860318534167
 20
99.85720227886522
 30
0.0
 11
94.14753989508641
 21
99.89059837201843
 31
0.0
1001
REVIT
1002
{
1070
     3
1000
7518
1002
}
  0
HATCH
  5
16D
330
99
100
AcDbEntity
  8
G-IMPT
370
    40
100
AcDbHatch
 10
0.0
 20
0.0
 30
0.0
210
0.0
220
0.0
230
1.0
  2
SOLID
 70
     1
 71
     0
 91
        1
 92
        0
 93
        3
 72
     1
 10
94.14753989508641
 20
99.89059837201843
 11
94.14753989508641
 21
93.06939599268233
 72
     1
 10
94.14753989508641
 20
93.06939599268233
 11
94.23860318534167
 21
99.85720227886522
 72
     1
 10
94.23860318534167
 20
99.85720227886522
 11
94.14753989508641
 21
99.89059837201843
 97
        0
 75
     0
 76
     1
 98
        1
 10
0.0
 20
0.0
450
        0
451
        0
460
0.0
461
0.0
452
        0
462
0.0
453
        0
470

1001
REVIT
1002
{
1070
     3
1000
7518
1002
}
  0
LINE
  5
16E
330
99
100
AcDbEntity
  8
G-IMPT
370
    40
100
AcDbLine
 10
94.14753989508644
 20
93.06939599268233
 30
0.0
 11
94.23860318534167
 21
99.85720227886522
 31
0.0
1001
REVIT
1002
{
1070
     3
1000
7518
1002
}
  0
LINE
  5
16F
330
99
100
AcDbEntity
  8
G-IMPT
370
    40
100
AcDbLine
 10
94.23860318534167
 20
99.85720227886522
 30
0.0
 11
94.23860318534167
 21
93.10279208583555
 31
0.0
1001
REVIT
1002
{
1070
     3
1000
7518
1002
}
  0
LINE
  5
170
330
99
100
AcDbEntity
  8
G-IMPT
370
    40
100
AcDbLine
 10
94.23860318534167
 20
93.10279208583555
 30
0.0
 11
94.14753989508644
 21
93.06939599268233
 31
0.0
1001
REVIT
1002
{
1070
     3
1000
7518
1002
}
  0
HATCH
  5
171
330
99
100
AcDbEntity
  8
G-IMPT
370
    40
100
AcDbHatch
 10
0.0
 20
0.0
 30
0.0
210
0.0
220
0.0
230
1.0
  2
SOLID
 70
     1
 71
     0
 91
        1
 92
        0
 93
        3
 72
     1
 10
94.14753989508644
 20
93.06939599268233
 11
94.23860318534167
 21
99.85720227886522
 72
     1
 10
94.23860318534167
 20
99.85720227886522
 11
94.23860318534167
 21
93.10279208583555
 72
     1
 10
94.23860318534167
 20
93.10279208583555
 11
94.14753989508644
 21
93.06939599268233
 97
        0
 75
     0
 76
     1
 98
        1
 10
0.0
 20
0.0
450
        0
451
        0
460
0.0
461
0.0
452
        0
462
0.0
453
        0
470

1001
REVIT
1002
{
1070
     3
1000
7518
1002
}
  0
LINE
  5
172
330
99
100
AcDbEntity
  8
G-IMPT
370
    40
100
AcDbLine
 10
94.23860318534167
 20
99.85720227886522
 30
0.0
 11
94.23860318534167
 21
93.10279208583555
 31
0.0
1001
REVIT
1002
{
1070
     3
1000
7518
1002
}
  0
LINE
  5
173
330
99
100
AcDbEntity
  8
G-IMPT
370
    40
100
AcDbLine
 10
94.23860318534167
 20
93.10279208583555
 30
0.0
 11
94.31822545892222
 21
99.80181170728599
 31
0.0
1001
REVIT
1002
{
1070
     3
1000
7518
1002
}
  0
LINE
  5
174
330
99
100
AcDbEntity
  8
G-IMPT
370
    40
100
AcDbLine
 10
94.31822545892222
 20
99.80181170728599
 30
0.0
 11
94.23860318534167
 21
99.85720227886522
 31
0.0
1001
REVIT
1002
{
1070
     3
1000
7518
1002
}
  0
HATCH
  5
175
330
99
100
AcDbEntity
  8
G-IMPT
370
    40
100
AcDbHatch
 10
0.0
 20
0.0
 30
0.0
210
0.0
220
0.0
230
1.0
  2
SOLID
 70
     1
 71
     0
 91
        1
 92
        0
 93
        3
 72
     1
 10
94.23860318534167
 20
99.85720227886522
 11
94.23860318534167
 21
93.10279208583555
 72
     1
 10
94.23860318534167
 20
93.10279208583555
 11
94.31822545892222
 21
99.80181170728599
 72
     1
 10
94.31822545892222
 20
99.80181170728599
 11
94.23860318534167
 21
99.85720227886522
 97
        0
 75
     0
 76
     1
 98
        1
 10
0.0
 20
0.0
450
        0
451
        0
460
0.0
461
0.0
452
        0
462
0.0
453
        0
470

1001
REVIT
1002
{
1070
     3
1000
7518
1002
}
  0
LINE
  5
176
330
99
100
AcDbEntity
  8
G-IMPT
370
    40
100
AcDbLine
 10
94.23860318534172
 20
93.10279208583555
 30
0.0
 11
94.31822545892222
 21
99.80181170728599
 31
0.0
1001
REVIT
1002
{
1070
     3
1000
7518
1002
}
  0
LINE
  5
177
330
99
100
AcDbEntity
  8
G-IMPT
370
    40
100
AcDbLine
 10
94.31822545892222
 20
99.80181170728599
 30
0.0
 11
94.31822545892222
 21
93.15818265741476
 31
0.0
1001
REVIT
1002
{
1070
     3
1000
7518
1002
}
  0
LINE
  5
178
330
99
100
AcDbEntity
  8
G-IMPT
370
    40
100
AcDbLine
 10
94.31822545892222
 20
93.15818265741476
 30
0.0
 11
94.23860318534172
 21
93.10279208583555
 31
0.0
1001
REVIT
1002
{
1070
     3
1000
7518
1002
}
  0
HATCH
  5
179
330
99
100
AcDbEntity
  8
G-IMPT
370
    40
100
AcDbHatch
 10
0.0
 20
0.0
 30
0.0
210
0.0
220
0.0
230
1.0
  2
SOLID
 70
     1
 71
     0
 91
        1
 92
        0
 93
        3
 72
     1
 10
94.23860318534172
 20
93.10279208583555
 11
94.31822545892222
 21
99.80181170728599
 72
     1
 10
94.31822545892222
 20
99.80181170728599
 11
94.31822545892222
 21
93.15818265741476
 72
     1
 10
94.31822545892222
 20
93.15818265741476
 11
94.23860318534172
 21
93.10279208583555
 97
        0
 75
     0
 76
     1
 98
        1
 10
0.0
 20
0.0
450
        0
451
        0
460
0.0
461
0.0
452
        0
462
0.0
453
        0
470

1001
REVIT
1002
{
1070
     3
1000
7518
1002
}
  0
LINE
  5
17A
330
99
100
AcDbEntity
  8
G-IMPT
370
    40
100
AcDbLine
 10
94.31822545892222
 20
99.80181170728599
 30
0.0
 11
94.31822545892222
 21
93.15818265741476
 31
0.0
1001
REVIT
1002
{
1070
     3
1000
7518
1002
}
  0
LINE
  5
17B
330
99
100
AcDbEntity
  8
G-IMPT
370
    40
100
AcDbLine
 10
94.31822545892222
 20
93.15818265741476
 30
0.0
 11
94.38120464619442
 21
99.72804556437106
 31
0.0
1001
REVIT
1002
{
1070
     3
1000
7518
1002
}
  0
LINE
  5
17C
330
99
100
AcDbEntity
  8
G-IMPT
370
    40
100
AcDbLine
 10
94.38120464619442
 20
99.72804556437106
 30
0.0
 11
94.31822545892222
 21
99.80181170728599
 31
0.0
1001
REVIT
1002
{
1070
     3
1000
7518
1002
}
  0
HATCH
  5
17D
330
99
100
AcDbEntity
  8
G-IMPT
370
    40
100
AcDbHatch
 10
0.0
 20
0.0
 30
0.0
210
0.0
220
0.0
230
1.0
  2
SOLID
 70
     1
 71
     0
 91
        1
 92
        0
 93
        3
 72
     1
 10
94.31822545892222
 20
99.80181170728599
 11
94.31822545892222
 21
93.15818265741476
 72
     1
 10
94.31822545892222
 20
93.15818265741476
 11
94.38120464619442
 21
99.72804556437106
 72
     1
 10
94.38120464619442
 20
99.72804556437106
 11
94.31822545892222
 21
99.80181170728599
 97
        0
 75
     0
 76
     1
 98
        1
 10
0.0
 20
0.0
450
        0
451
        0
460
0.0
461
0.0
452
        0
462
0.0
453
        0
470

1001
REVIT
1002
{
1070
     3
1000
7518
1002
}
  0
LINE
  5
17E
330
99
100
AcDbEntity
  8
G-IMPT
370
    40
100
AcDbLine
 10
94.31822545892229
 20
93.15818265741476
 30
0.0
 11
94.38120464619442
 21
99.72804556437106
 31
0.0
1001
REVIT
1002
{
1070
     3
1000
7518
1002
}
  0
LINE
  5
17F
330
99
100
AcDbEntity
  8
G-IMPT
370
    40
100
AcDbLine
 10
94.38120464619442
 20
99.72804556437106
 30
0.0
 11
94.38120464619442
 21
93.23194880032973
 31
0.0
1001
REVIT
1002
{
1070
     3
1000
7518
1002
}
  0
LINE
  5
180
330
99
100
AcDbEntity
  8
G-IMPT
370
    40
100
AcDbLine
 10
94.38120464619442
 20
93.23194880032973
 30
0.0
 11
94.31822545892229
 21
93.15818265741476
 31
0.0
1001
REVIT
1002
{
1070
     3
1000
7518
1002
}
  0
HATCH
  5
181
330
99
100
AcDbEntity
  8
G-IMPT
370
    40
100
AcDbHatch
 10
0.0
 20
0.0
 30
0.0
210
0.0
220
0.0
230
1.0
  2
SOLID
 70
     1
 71
     0
 91
        1
 92
        0
 93
        3
 72
     1
 10
94.31822545892229
 20
93.15818265741476
 11
94.38120464619442
 21
99.72804556437106
 72
     1
 10
94.38120464619442
 20
99.72804556437106
 11
94.38120464619442
 21
93.23194880032973
 72
     1
 10
94.38120464619442
 20
93.23194880032973
 11
94.31822545892229
 21
93.15818265741476
 97
        0
 75
     0
 76
     1
 98
        1
 10
0.0
 20
0.0
450
        0
451
        0
460
0.0
461
0.0
452
        0
462
0.0
453
        0
470

1001
REVIT
1002
{
1070
     3
1000
7518
1002
}
  0
LINE
  5
182
330
99
100
AcDbEntity
  8
G-IMPT
370
    40
100
AcDbLine
 10
94.38120464619442
 20
99.72804556437106
 30
0.0
 11
94.38120464619442
 21
93.23194880032973
 31
0.0
1001
REVIT
1002
{
1070
     3
1000
7518
1002
}
  0
LINE
  5
183
330
99
100
AcDbEntity
  8
G-IMPT
370
    40
100
AcDbLine
 10
94.38120464619442
 20
93.23194880032973
 30
0.0
 11
95.03871966513925
 21
98.72122569161184
 31
0.0
1001
REVIT
1002
{
1070
     3
1000
7518
1002
}
  0
LINE
  5
184
330
99
100
AcDbEntity
  8
G-IMPT
370
    40
100
AcDbLine
 10
95.03871966513925
 20
98.72122569161184
 30
0.0
 11
94.38120464619442
 21
99.72804556437106
 31
0.0
1001
REVIT
1002
{
1070
     3
1000
7518
1002
}
  0
HATCH
  5
185
330
99
100
AcDbEntity
  8
G-IMPT
370
    40
100
AcDbHatch
 10
0.0
 20
0.0
 30
0.0
210
0.0
220
0.0
230
1.0
  2
SOLID
 70
     1
 71
     0
 91
        1
 92
        0
 93
        3
 72
     1
 10
94.38120464619442
 20
99.72804556437106
 11
94.38120464619442
 21
93.23194880032973
 72
     1
 10
94.38120464619442
 20
93.23194880032973
 11
95.03871966513925
 21
98.72122569161184
 72
     1
 10
95.03871966513925
 20
98.72122569161184
 11
94.38120464619442
 21
99.72804556437106
 97
        0
 75
     0
 76
     1
 98
        1
 10
0.0
 20
0.0
450
        0
451
        0
460
0.0
461
0.0
452
        0
462
0.0
453
        0
470

1001
REVIT
1002
{
1070
     3
1000
7518
1002
}
  0
LINE
  5
186
330
99
100
AcDbEntity
  8
G-IMPT
370
    40
100
AcDbLine
 10
94.3812046461945
 20
93.23194880032973
 30
0.0
 11
95.03871966513925
 21
98.72122569161184
 31
0.0
1001
REVIT
1002
{
1070
     3
1000
7518
1002
}
  0
LINE
  5
187
330
99
100
AcDbEntity
  8
G-IMPT
370
    40
100
AcDbLine
 10
95.03871966513925
 20
98.72122569161184
 30
0.0
 11
95.03871966513925
 21
94.23876867308901
 31
0.0
1001
REVIT
1002
{
1070
     3
1000
7518
1002
}
  0
LINE
  5
188
330
99
100
AcDbEntity
  8
G-IMPT
370
    40
100
AcDbLine
 10
95.03871966513925
 20
94.23876867308901
 30
0.0
 11
94.3812046461945
 21
93.23194880032973
 31
0.0
1001
REVIT
1002
{
1070
     3
1000
7518
1002
}
  0
HATCH
  5
189
330
99
100
AcDbEntity
  8
G-IMPT
370
    40
100
AcDbHatch
 10
0.0
 20
0.0
 30
0.0
210
0.0
220
0.0
230
1.0
  2
SOLID
 70
     1
 71
     0
 91
        1
 92
        0
 93
        3
 72
     1
 10
94.3812046461945
 20
93.23194880032973
 11
95.03871966513925
 21
98.72122569161184
 72
     1
 10
95.03871966513925
 20
98.72122569161184
 11
95.03871966513925
 21
94.23876867308901
 72
     1
 10
95.03871966513925
 20
94.23876867308901
 11
94.3812046461945
 21
93.23194880032973
 97
        0
 75
     0
 76
     1
 98
        1
 10
0.0
 20
0.0
450
        0
451
        0
460
0.0
461
0.0
452
        0
462
0.0
453
        0
470

1001
REVIT
1002
{
1070
     3
1000
7518
1002
}
  0
LINE
  5
18A
330
99
100
AcDbEntity
  8
G-IMPT
370
    40
100
AcDbLine
 10
95.03871966513925
 20
98.72122569161184
 30
0.0
 11
95.03871966513925
 21
94.23876867308901
 31
0.0
1001
REVIT
1002
{
1070
     3
1000
7518
1002
}
  0
LINE
  5
18B
330
99
100
AcDbEntity
  8
G-IMPT
370
    40
100
AcDbLine
 10
95.03871966513925
 20
94.23876867308901
 30
0.0
 11
95.45708232020137
 21
98.08372069342192
 31
0.0
1001
REVIT
1002
{
1070
     3
1000
7518
1002
}
  0
LINE
  5
18C
330
99
100
AcDbEntity
  8
G-IMPT
370
    40
100
AcDbLine
 10
95.45708232020137
 20
98.08372069342192
 30
0.0
 11
95.03871966513925
 21
98.72122569161184
 31
0.0
1001
REVIT
1002
{
1070
     3
1000
7518
1002
}
  0
HATCH
  5
18D
330
99
100
AcDbEntity
  8
G-IMPT
370
    40
100
AcDbHatch
 10
0.0
 20
0.0
 30
0.0
210
0.0
220
0.0
230
1.0
  2
SOLID
 70
     1
 71
     0
 91
        1
 92
        0
 93
        3
 72
     1
 10
95.03871966513925
 20
98.72122569161184
 11
95.03871966513925
 21
94.23876867308901
 72
     1
 10
95.03871966513925
 20
94.23876867308901
 11
95.45708232020137
 21
98.08372069342192
 72
     1
 10
95.45708232020137
 20
98.08372069342192
 11
95.03871966513925
 21
98.72122569161184
 97
        0
 75
     0
 76
     1
 98
        1
 10
0.0
 20
0.0
450
        0
451
        0
460
0.0
461
0.0
452
        0
462
0.0
453
        0
470

1001
REVIT
1002
{
1070
     3
1000
7518
1002
}
  0
LINE
  5
18E
330
99
100
AcDbEntity
  8
G-IMPT
370
    40
100
AcDbLine
 10
95.03871966513925
 20
94.23876867308901
 30
0.0
 11
95.45708232020137
 21
98.08372069342192
 31
0.0
1001
REVIT
1002
{
1070
     3
1000
7518
1002
}
  0
LINE
  5
18F
330
99
100
AcDbEntity
  8
G-IMPT
370
    40
100
AcDbLine
 10
95.45708232020137
 20
98.08372069342192
 30
0.0
 11
95.45708232020137
 21
94.8762736712789
 31
0.0
1001
REVIT
1002
{
1070
     3
1000
7518
1002
}
  0
LINE
  5
190
330
99
100
AcDbEntity
  8
G-IMPT
370
    40
100
AcDbLine
 10
95.45708232020137
 20
94.8762736712789
 30
0.0
 11
95.03871966513925
 21
94.23876867308901
 31
0.0
1001
REVIT
1002
{
1070
     3
1000
7518
1002
}
  0
HATCH
  5
191
330
99
100
AcDbEntity
  8
G-IMPT
370
    40
100
AcDbHatch
 10
0.0
 20
0.0
 30
0.0
210
0.0
220
0.0
230
1.0
  2
SOLID
 70
     1
 71
     0
 91
        1
 92
        0
 93
        3
 72
     1
 10
95.03871966513925
 20
94.23876867308901
 11
95.45708232020137
 21
98.08372069342192
 72
     1
 10
95.45708232020137
 20
98.08372069342192
 11
95.45708232020137
 21
94.8762736712789
 72
     1
 10
95.45708232020137
 20
94.8762736712789
 11
95.03871966513925
 21
94.23876867308901
 97
        0
 75
     0
 76
     1
 98
        1
 10
0.0
 20
0.0
450
        0
451
        0
460
0.0
461
0.0
452
        0
462
0.0
453
        0
470

1001
REVIT
1002
{
1070
     3
1000
7518
1002
}
  0
LINE
  5
192
330
99
100
AcDbEntity
  8
G-IMPT
370
    40
100
AcDbLine
 10
112.0651902311059
 20
98.72122569161179
 30
0.0
 11
111.6337716492705
 21
94.8762736712789
 31
0.0
1001
REVIT
1002
{
1070
     3
1000
7518
1002
}
  0
LINE
  5
193
330
99
100
AcDbEntity
  8
G-IMPT
370
    40
100
AcDbLine
 10
111.6337716492705
 20
94.8762736712789
 30
0.0
 11
111.6337716492705
 21
97.49018630585442
 31
0.0
1001
REVIT
1002
{
1070
     3
1000
7518
1002
}
  0
LINE
  5
194
330
99
100
AcDbEntity
  8
G-IMPT
370
    40
100
AcDbLine
 10
111.6337716492705
 20
97.49018630585442
 30
0.0
 11
112.0651902311059
 21
98.72122569161179
 31
0.0
1001
REVIT
1002
{
1070
     3
1000
7518
1002
}
  0
HATCH
  5
195
330
99
100
AcDbEntity
  8
G-IMPT
370
    40
100
AcDbHatch
 10
0.0
 20
0.0
 30
0.0
210
0.0
220
0.0
230
1.0
  2
SOLID
 70
     1
 71
     0
 91
        1
 92
        0
 93
        3
 72
     1
 10
112.0651902311059
 20
98.72122569161179
 11
111.6337716492705
 21
94.8762736712789
 72
     1
 10
111.6337716492705
 20
94.8762736712789
 11
111.6337716492705
 21
97.49018630585442
 72
     1
 10
111.6337716492705
 20
97.49018630585442
 11
112.0651902311059
 21
98.72122569161179
 97
        0
 75
     0
 76
     1
 98
        1
 10
0.0
 20
0.0
450
        0
451
        0
460
0.0
461
0.0
452
        0
462
0.0
453
        0
470

1001
REVIT
1002
{
1070
     3
1000
7518
1002
}
  0
LINE
  5
196
330
99
100
AcDbEntity
  8
G-IMPT
370
    40
100
AcDbLine
 10
112.0651902311059
 20
98.72122569161179
 30
0.0
 11
111.6337716492705
 21
97.49018630585442
 31
0.0
1001
REVIT
1002
{
1070
     3
1000
7518
1002
}
  0
LINE
  5
197
330
99
100
AcDbEntity
  8
G-IMPT
370
    40
100
AcDbLine
 10
111.6337716492705
 20
97.49018630585442
 30
0.0
 11
111.6135474554451
 21
97.64380430928015
 31
0.0
1001
REVIT
1002
{
1070
     3
1000
7518
1002
}
  0
LINE
  5
198
330
99
100
AcDbEntity
  8
G-IMPT
370
    40
100
AcDbLine
 10
111.6135474554451
 20
97.64380430928015
 30
0.0
 11
112.0651902311059
 21
98.72122569161179
 31
0.0
1001
REVIT
1002
{
1070
     3
1000
7518
1002
}
  0
HATCH
  5
199
330
99
100
AcDbEntity
  8
G-IMPT
370
    40
100
AcDbHatch
 10
0.0
 20
0.0
 30
0.0
210
0.0
220
0.0
230
1.0
  2
SOLID
 70
     1
 71
     0
 91
        1
 92
        0
 93
        3
 72
     1
 10
112.0651902311059
 20
98.72122569161179
 11
111.6337716492705
 21
97.49018630585442
 72
     1
 10
111.6337716492705
 20
97.49018630585442
 11
111.6135474554451
 21
97.64380430928015
 72
     1
 10
111.6135474554451
 20
97.64380430928015
 11
112.0651902311059
 21
98.72122569161179
 97
        0
 75
     0
 76
     1
 98
        1
 10
0.0
 20
0.0
450
        0
451
        0
460
0.0
461
0.0
452
        0
462
0.0
453
        0
470

1001
REVIT
1002
{
1070
     3
1000
7518
1002
}
  0
LINE
  5
19A
330
99
100
AcDbEntity
  8
G-IMPT
370
    40
100
AcDbLine
 10
112.0651902311059
 20
98.72122569161179
 30
0.0
 11
111.6135474554451
 21
97.64380430928015
 31
0.0
1001
REVIT
1002
{
1070
     3
1000
7518
1002
}
  0
LINE
  5
19B
330
99
100
AcDbEntity
  8
G-IMPT
370
    40
100
AcDbLine
 10
111.6135474554451
 20
97.64380430928015
 30
0.0
 11
111.5542531193561
 21
97.78695349963818
 31
0.0
1001
REVIT
1002
{
1070
     3
1000
7518
1002
}
  0
LINE
  5
19C
330
99
100
AcDbEntity
  8
G-IMPT
370
    40
100
AcDbLine
 10
111.5542531193561
 20
97.78695349963818
 30
0.0
 11
112.0651902311059
 21
98.72122569161179
 31
0.0
1001
REVIT
1002
{
1070
     3
1000
7518
1002
}
  0
HATCH
  5
19D
330
99
100
AcDbEntity
  8
G-IMPT
370
    40
100
AcDbHatch
 10
0.0
 20
0.0
 30
0.0
210
0.0
220
0.0
230
1.0
  2
SOLID
 70
     1
 71
     0
 91
        1
 92
        0
 93
        3
 72
     1
 10
112.0651902311059
 20
98.72122569161179
 11
111.6135474554451
 21
97.64380430928015
 72
     1
 10
111.6135474554451
 20
97.64380430928015
 11
111.5542531193561
 21
97.78695349963818
 72
     1
 10
111.5542531193561
 20
97.78695349963818
 11
112.0651902311059
 21
98.72122569161179
 97
        0
 75
     0
 76
     1
 98
        1
 10
0.0
 20
0.0
450
        0
451
        0
460
0.0
461
0.0
452
        0
462
0.0
453
        0
470

1001
REVIT
1002
{
1070
     3
1000
7518
1002
}
  0
LINE
  5
19E
330
99
100
AcDbEntity
  8
G-IMPT
370
    40
100
AcDbLine
 10
112.0651902311059
 20
98.72122569161179
 30
0.0
 11
111.5542531193561
 21
97.78695349963818
 31
0.0
1001
REVIT
1002
{
1070
     3
1000
7518
1002
}
  0
LINE
  5
19F
330
99
100
AcDbEntity
  8
G-IMPT
370
    40
100
AcDbLine
 10
111.5542531193561
 20
97.78695349963818
 30
0.0
 11
111.4599294520194
 21
97.90987849617081
 31
0.0
1001
REVIT
1002
{
1070
     3
1000
7518
1002
}
  0
LINE
  5
1A0
330
99
100
AcDbEntity
  8
G-IMPT
370
    40
100
AcDbLine
 10
111.4599294520194
 20
97.90987849617081
 30
0.0
 11
112.0651902311059
 21
98.72122569161179
 31
0.0
1001
REVIT
1002
{
1070
     3
1000
7518
1002
}
  0
HATCH
  5
1A1
330
99
100
AcDbEntity
  8
G-IMPT
370
    40
100
AcDbHatch
 10
0.0
 20
0.0
 30
0.0
210
0.0
220
0.0
230
1.0
  2
SOLID
 70
     1
 71
     0
 91
        1
 92
        0
 93
        3
 72
     1
 10
112.0651902311059
 20
98.72122569161179
 11
111.5542531193561
 21
97.78695349963818
 72
     1
 10
111.5542531193561
 20
97.78695349963818
 11
111.4599294520194
 21
97.90987849617081
 72
     1
 10
111.4599294520194
 20
97.90987849617081
 11
112.0651902311059
 21
98.72122569161179
 97
        0
 75
     0
 76
     1
 98
        1
 10
0.0
 20
0.0
450
        0
451
        0
460
0.0
461
0.0
452
        0
462
0.0
453
        0
470

1001
REVIT
1002
{
1070
     3
1000
7518
1002
}
  0
LINE
  5
1A2
330
99
100
AcDbEntity
  8
G-IMPT
370
    40
100
AcDbLine
 10
112.0651902311059
 20
98.72122569161179
 30
0.0
 11
111.4599294520194
 21
97.90987849617081
 31
0.0
1001
REVIT
1002
{
1070
     3
1000
7518
1002
}
  0
LINE
  5
1A3
330
99
100
AcDbEntity
  8
G-IMPT
370
    40
100
AcDbLine
 10
111.4599294520194
 20
97.90987849617081
 30
0.0
 11
111.3370044554867
 21
98.00420216350751
 31
0.0
1001
REVIT
1002
{
1070
     3
1000
7518
1002
}
  0
LINE
  5
1A4
330
99
100
AcDbEntity
  8
G-IMPT
370
    40
100
AcDbLine
 10
111.3370044554867
 20
98.00420216350751
 30
0.0
 11
112.0651902311059
 21
98.72122569161179
 31
0.0
1001
REVIT
1002
{
1070
     3
1000
7518
1002
}
  0
HATCH
  5
1A5
330
99
100
AcDbEntity
  8
G-IMPT
370
    40
100
AcDbHatch
 10
0.0
 20
0.0
 30
0.0
210
0.0
220
0.0
230
1.0
  2
SOLID
 70
     1
 71
     0
 91
        1
 92
        0
 93
        3
 72
     1
 10
112.0651902311059
 20
98.72122569161179
 11
111.4599294520194
 21
97.90987849617081
 72
     1
 10
111.4599294520194
 20
97.90987849617081
 11
111.3370044554867
 21
98.00420216350751
 72
     1
 10
111.3370044554867
 20
98.00420216350751
 11
112.0651902311059
 21
98.72122569161179
 97
        0
 75
     0
 76
     1
 98
        1
 10
0.0
 20
0.0
450
        0
451
        0
460
0.0
461
0.0
452
        0
462
0.0
453
        0
470

1001
REVIT
1002
{
1070
     3
1000
7518
1002
}
  0
LINE
  5
1A6
330
99
100
AcDbEntity
  8
G-IMPT
370
    40
100
AcDbLine
 10
112.0651902311059
 20
98.72122569161179
 30
0.0
 11
111.3370044554867
 21
98.00420216350751
 31
0.0
1001
REVIT
1002
{
1070
     3
1000
7518
1002
}
  0
LINE
  5
1A7
330
99
100
AcDbEntity
  8
G-IMPT
370
    40
100
AcDbLine
 10
111.3370044554867
 20
98.00420216350751
 30
0.0
 11
111.1938552651287
 21
98.06349649959654
 31
0.0
1001
REVIT
1002
{
1070
     3
1000
7518
1002
}
  0
LINE
  5
1A8
330
99
100
AcDbEntity
  8
G-IMPT
370
    40
100
AcDbLine
 10
111.1938552651287
 20
98.06349649959654
 30
0.0
 11
112.0651902311059
 21
98.72122569161179
 31
0.0
1001
REVIT
1002
{
1070
     3
1000
7518
1002
}
  0
HATCH
  5
1A9
330
99
100
AcDbEntity
  8
G-IMPT
370
    40
100
AcDbHatch
 10
0.0
 20
0.0
 30
0.0
210
0.0
220
0.0
230
1.0
  2
SOLID
 70
     1
 71
     0
 91
        1
 92
        0
 93
        3
 72
     1
 10
112.0651902311059
 20
98.72122569161179
 11
111.3370044554867
 21
98.00420216350751
 72
     1
 10
111.3370044554867
 20
98.00420216350751
 11
111.1938552651287
 21
98.06349649959654
 72
     1
 10
111.1938552651287
 20
98.06349649959654
 11
112.0651902311059
 21
98.72122569161179
 97
        0
 75
     0
 76
     1
 98
        1
 10
0.0
 20
0.0
450
        0
451
        0
460
0.0
461
0.0
452
        0
462
0.0
453
        0
470

1001
REVIT
1002
{
1070
     3
1000
7518
1002
}
  0
LINE
  5
1AA
330
99
100
AcDbEntity
  8
G-IMPT
370
    40
100
AcDbLine
 10
112.0651902311059
 20
98.72122569161179
 30
0.0
 11
111.1938552651287
 21
98.06349649959654
 31
0.0
1001
REVIT
1002
{
1070
     3
1000
7518
1002
}
  0
LINE
  5
1AB
330
99
100
AcDbEntity
  8
G-IMPT
370
    40
100
AcDbLine
 10
111.1938552651287
 20
98.06349649959654
 30
0.0
 11
111.040237261703
 21
98.08372069342192
 31
0.0
1001
REVIT
1002
{
1070
     3
1000
7518
1002
}
  0
LINE
  5
1AC
330
99
100
AcDbEntity
  8
G-IMPT
370
    40
100
AcDbLine
 10
111.040237261703
 20
98.08372069342192
 30
0.0
 11
112.0651902311059
 21
98.72122569161179
 31
0.0
1001
REVIT
1002
{
1070
     3
1000
7518
1002
}
  0
HATCH
  5
1AD
330
99
100
AcDbEntity
  8
G-IMPT
370
    40
100
AcDbHatch
 10
0.0
 20
0.0
 30
0.0
210
0.0
220
0.0
230
1.0
  2
SOLID
 70
     1
 71
     0
 91
        1
 92
        0
 93
        3
 72
     1
 10
112.0651902311059
 20
98.72122569161179
 11
111.1938552651287
 21
98.06349649959654
 72
     1
 10
111.1938552651287
 20
98.06349649959654
 11
111.040237261703
 21
98.08372069342192
 72
     1
 10
111.040237261703
 20
98.08372069342192
 11
112.0651902311059
 21
98.72122569161179
 97
        0
 75
     0
 76
     1
 98
        1
 10
0.0
 20
0.0
450
        0
451
        0
460
0.0
461
0.0
452
        0
462
0.0
453
        0
470

1001
REVIT
1002
{
1070
     3
1000
7518
1002
}
  0
LINE
  5
1AE
330
99
100
AcDbEntity
  8
G-IMPT
370
    40
100
AcDbLine
 10
112.0651902311059
 20
98.72122569161179
 30
0.0
 11
111.040237261703
 21
98.08372069342192
 31
0.0
1001
REVIT
1002
{
1070
     3
1000
7518
1002
}
  0
LINE
  5
1AF
330
99
100
AcDbEntity
  8
G-IMPT
370
    40
100
AcDbLine
 10
111.040237261703
 20
98.08372069342192
 30
0.0
 11
108.9112572500401
 21
98.08372069342192
 31
0.0
1001
REVIT
1002
{
1070
     3
1000
7518
1002
}
  0
LINE
  5
1B0
330
99
100
AcDbEntity
  8
G-IMPT
370
    40
100
AcDbLine
 10
108.9112572500401
 20
98.08372069342192
 30
0.0
 11
112.0651902311059
 21
98.72122569161179
 31
0.0
1001
REVIT
1002
{
1070
     3
1000
7518
1002
}
  0
HATCH
  5
1B1
330
99
100
AcDbEntity
  8
G-IMPT
370
    40
100
AcDbHatch
 10
0.0
 20
0.0
 30
0.0
210
0.0
220
0.0
230
1.0
  2
SOLID
 70
     1
 71
     0
 91
        1
 92
        0
 93
        3
 72
     1
 10
112.0651902311059
 20
98.72122569161179
 11
111.040237261703
 21
98.08372069342192
 72
     1
 10
111.040237261703
 20
98.08372069342192
 11
108.9112572500401
 21
98.08372069342192
 72
     1
 10
108.9112572500401
 20
98.08372069342192
 11
112.0651902311059
 21
98.72122569161179
 97
        0
 75
     0
 76
     1
 98
        1
 10
0.0
 20
0.0
450
        0
451
        0
460
0.0
461
0.0
452
        0
462
0.0
453
        0
470

1001
REVIT
1002
{
1070
     3
1000
7518
1002
}
  0
LINE
  5
1B2
330
99
100
AcDbEntity
  8
G-IMPT
370
    40
100
AcDbLine
 10
112.0651902311059
 20
98.72122569161179
 30
0.0
 11
108.9112572500401
 21
98.08372069342192
 31
0.0
1001
REVIT
1002
{
1070
     3
1000
7518
1002
}
  0
LINE
  5
1B3
330
99
100
AcDbEntity
  8
G-IMPT
370
    40
100
AcDbLine
 10
108.9112572500401
 20
98.08372069342192
 30
0.0
 11
108.7576392466143
 21
98.06349649959654
 31
0.0
1001
REVIT
1002
{
1070
     3
1000
7518
1002
}
  0
LINE
  5
1B4
330
99
100
AcDbEntity
  8
G-IMPT
370
    40
100
AcDbLine
 10
108.7576392466143
 20
98.06349649959654
 30
0.0
 11
112.0651902311059
 21
98.72122569161179
 31
0.0
1001
REVIT
1002
{
1070
     3
1000
7518
1002
}
  0
HATCH
  5
1B5
330
99
100
AcDbEntity
  8
G-IMPT
370
    40
100
AcDbHatch
 10
0.0
 20
0.0
 30
0.0
210
0.0
220
0.0
230
1.0
  2
SOLID
 70
     1
 71
     0
 91
        1
 92
        0
 93
        3
 72
     1
 10
112.0651902311059
 20
98.72122569161179
 11
108.9112572500401
 21
98.08372069342192
 72
     1
 10
108.9112572500401
 20
98.08372069342192
 11
108.7576392466143
 21
98.06349649959654
 72
     1
 10
108.7576392466143
 20
98.06349649959654
 11
112.0651902311059
 21
98.72122569161179
 97
        0
 75
     0
 76
     1
 98
        1
 10
0.0
 20
0.0
450
        0
451
        0
460
0.0
461
0.0
452
        0
462
0.0
453
        0
470

1001
REVIT
1002
{
1070
     3
1000
7518
1002
}
  0
LINE
  5
1B6
330
99
100
AcDbEntity
  8
G-IMPT
370
    40
100
AcDbLine
 10
112.0651902311059
 20
98.72122569161179
 30
0.0
 11
108.7576392466143
 21
98.06349649959654
 31
0.0
1001
REVIT
1002
{
1070
     3
1000
7518
1002
}
  0
LINE
  5
1B7
330
99
100
AcDbEntity
  8
G-IMPT
370
    40
100
AcDbLine
 10
108.7576392466143
 20
98.06349649959654
 30
0.0
 11
107.7489755665506
 21
98.08372069342192
 31
0.0
1001
REVIT
1002
{
1070
     3
1000
7518
1002
}
  0
LINE
  5
1B8
330
99
100
AcDbEntity
  8
G-IMPT
370
    40
100
AcDbLine
 10
107.7489755665506
 20
98.08372069342192
 30
0.0
 11
112.0651902311059
 21
98.72122569161179
 31
0.0
1001
REVIT
1002
{
1070
     3
1000
7518
1002
}
  0
HATCH
  5
1B9
330
99
100
AcDbEntity
  8
G-IMPT
370
    40
100
AcDbHatch
 10
0.0
 20
0.0
 30
0.0
210
0.0
220
0.0
230
1.0
  2
SOLID
 70
     1
 71
     0
 91
        1
 92
        0
 93
        3
 72
     1
 10
112.0651902311059
 20
98.72122569161179
 11
108.7576392466143
 21
98.06349649959654
 72
     1
 10
108.7576392466143
 20
98.06349649959654
 11
107.7489755665506
 21
98.08372069342192
 72
     1
 10
107.7489755665506
 20
98.08372069342192
 11
112.0651902311059
 21
98.72122569161179
 97
        0
 75
     0
 76
     1
 98
        1
 10
0.0
 20
0.0
450
        0
451
        0
460
0.0
461
0.0
452
        0
462
0.0
453
        0
470

1001
REVIT
1002
{
1070
     3
1000
7518
1002
}
  0
LINE
  5
1BA
330
99
100
AcDbEntity
  8
G-IMPT
370
    40
100
AcDbLine
 10
112.0651902311059
 20
98.72122569161179
 30
0.0
 11
107.7489755665506
 21
98.08372069342192
 31
0.0
1001
REVIT
1002
{
1070
     3
1000
7518
1002
}
  0
LINE
  5
1BB
330
99
100
AcDbEntity
  8
G-IMPT
370
    40
100
AcDbLine
 10
107.7489755665506
 20
98.08372069342192
 30
0.0
 11
104.7606708875354
 21
98.08372069342192
 31
0.0
1001
REVIT
1002
{
1070
     3
1000
7518
1002
}
  0
LINE
  5
1BC
330
99
100
AcDbEntity
  8
G-IMPT
370
    40
100
AcDbLine
 10
104.7606708875354
 20
98.08372069342192
 30
0.0
 11
112.0651902311059
 21
98.72122569161179
 31
0.0
1001
REVIT
1002
{
1070
     3
1000
7518
1002
}
  0
HATCH
  5
1BD
330
99
100
AcDbEntity
  8
G-IMPT
370
    40
100
AcDbHatch
 10
0.0
 20
0.0
 30
0.0
210
0.0
220
0.0
230
1.0
  2
SOLID
 70
     1
 71
     0
 91
        1
 92
        0
 93
        3
 72
     1
 10
112.0651902311059
 20
98.72122569161179
 11
107.7489755665506
 21
98.08372069342192
 72
     1
 10
107.7489755665506
 20
98.08372069342192
 11
104.7606708875354
 21
98.08372069342192
 72
     1
 10
104.7606708875354
 20
98.08372069342192
 11
112.0651902311059
 21
98.72122569161179
 97
        0
 75
     0
 76
     1
 98
        1
 10
0.0
 20
0.0
450
        0
451
        0
460
0.0
461
0.0
452
        0
462
0.0
453
        0
470

1001
REVIT
1002
{
1070
     3
1000
7518
1002
}
  0
LINE
  5
1BE
330
99
100
AcDbEntity
  8
G-IMPT
370
    40
100
AcDbLine
 10
112.0651902311059
 20
98.72122569161179
 30
0.0
 11
104.7606708875354
 21
98.08372069342192
 31
0.0
1001
REVIT
1002
{
1070
     3
1000
7518
1002
}
  0
LINE
  5
1BF
330
99
100
AcDbEntity
  8
G-IMPT
370
    40
100
AcDbLine
 10
104.7606708875354
 20
98.08372069342192
 30
0.0
 11
103.9040235462177
 21
98.08372069342192
 31
0.0
1001
REVIT
1002
{
1070
     3
1000
7518
1002
}
  0
LINE
  5
1C0
330
99
100
AcDbEntity
  8
G-IMPT
370
    40
100
AcDbLine
 10
103.9040235462177
 20
98.08372069342192
 30
0.0
 11
112.0651902311059
 21
98.72122569161179
 31
0.0
1001
REVIT
1002
{
1070
     3
1000
7518
1002
}
  0
HATCH
  5
1C1
330
99
100
AcDbEntity
  8
G-IMPT
370
    40
100
AcDbHatch
 10
0.0
 20
0.0
 30
0.0
210
0.0
220
0.0
230
1.0
  2
SOLID
 70
     1
 71
     0
 91
        1
 92
        0
 93
        3
 72
     1
 10
112.0651902311059
 20
98.72122569161179
 11
104.7606708875354
 21
98.08372069342192
 72
     1
 10
104.7606708875354
 20
98.08372069342192
 11
103.9040235462177
 21
98.08372069342192
 72
     1
 10
103.9040235462177
 20
98.08372069342192
 11
112.0651902311059
 21
98.72122569161179
 97
        0
 75
     0
 76
     1
 98
        1
 10
0.0
 20
0.0
450
        0
451
        0
460
0.0
461
0.0
452
        0
462
0.0
453
        0
470

1001
REVIT
1002
{
1070
     3
1000
7518
1002
}
  0
LINE
  5
1C2
330
99
100
AcDbEntity
  8
G-IMPT
370
    40
100
AcDbLine
 10
112.0651902311059
 20
98.72122569161179
 30
0.0
 11
103.9040235462177
 21
98.08372069342192
 31
0.0
1001
REVIT
1002
{
1070
     3
1000
7518
1002
}
  0
LINE
  5
1C3
330
99
100
AcDbEntity
  8
G-IMPT
370
    40
100
AcDbLine
 10
103.9040235462177
 20
98.08372069342192
 30
0.0
 11
100.7961866800419
 21
98.08372069342192
 31
0.0
1001
REVIT
1002
{
1070
     3
1000
7518
1002
}
  0
LINE
  5
1C4
330
99
100
AcDbEntity
  8
G-IMPT
370
    40
100
AcDbLine
 10
100.7961866800419
 20
98.08372069342192
 30
0.0
 11
112.0651902311059
 21
98.72122569161179
 31
0.0
1001
REVIT
1002
{
1070
     3
1000
7518
1002
}
  0
HATCH
  5
1C5
330
99
100
AcDbEntity
  8
G-IMPT
370
    40
100
AcDbHatch
 10
0.0
 20
0.0
 30
0.0
210
0.0
220
0.0
230
1.0
  2
SOLID
 70
     1
 71
     0
 91
        1
 92
        0
 93
        3
 72
     1
 10
112.0651902311059
 20
98.72122569161179
 11
103.9040235462177
 21
98.08372069342192
 72
     1
 10
103.9040235462177
 20
98.08372069342192
 11
100.7961866800419
 21
98.08372069342192
 72
     1
 10
100.7961866800419
 20
98.08372069342192
 11
112.0651902311059
 21
98.72122569161179
 97
        0
 75
     0
 76
     1
 98
        1
 10
0.0
 20
0.0
450
        0
451
        0
460
0.0
461
0.0
452
        0
462
0.0
453
        0
470

1001
REVIT
1002
{
1070
     3
1000
7518
1002
}
  0
LINE
  5
1C6
330
99
100
AcDbEntity
  8
G-IMPT
370
    40
100
AcDbLine
 10
107.7489755665506
 20
98.08372069342192
 30
0.0
 11
108.7576392466143
 21
98.06349649959654
 31
0.0
1001
REVIT
1002
{
1070
     3
1000
7518
1002
}
  0
LINE
  5
1C7
330
99
100
AcDbEntity
  8
G-IMPT
370
    40
100
AcDbLine
 10
108.7576392466143
 20
98.06349649959654
 30
0.0
 11
108.6144900562563
 21
98.00420216350751
 31
0.0
1001
REVIT
1002
{
1070
     3
1000
7518
1002
}
  0
LINE
  5
1C8
330
99
100
AcDbEntity
  8
G-IMPT
370
    40
100
AcDbLine
 10
108.6144900562563
 20
98.00420216350751
 30
0.0
 11
107.7489755665506
 21
98.08372069342192
 31
0.0
1001
REVIT
1002
{
1070
     3
1000
7518
1002
}
  0
HATCH
  5
1C9
330
99
100
AcDbEntity
  8
G-IMPT
370
    40
100
AcDbHatch
 10
0.0
 20
0.0
 30
0.0
210
0.0
220
0.0
230
1.0
  2
SOLID
 70
     1
 71
     0
 91
        1
 92
        0
 93
        3
 72
     1
 10
107.7489755665506
 20
98.08372069342192
 11
108.7576392466143
 21
98.06349649959654
 72
     1
 10
108.7576392466143
 20
98.06349649959654
 11
108.6144900562563
 21
98.00420216350751
 72
     1
 10
108.6144900562563
 20
98.00420216350751
 11
107.7489755665506
 21
98.08372069342192
 97
        0
 75
     0
 76
     1
 98
        1
 10
0.0
 20
0.0
450
        0
451
        0
460
0.0
461
0.0
452
        0
462
0.0
453
        0
470

1001
REVIT
1002
{
1070
     3
1000
7518
1002
}
  0
LINE
  5
1CA
330
99
100
AcDbEntity
  8
G-IMPT
370
    40
100
AcDbLine
 10
107.7489755665506
 20
98.08372069342192
 30
0.0
 11
108.6144900562563
 21
98.00420216350751
 31
0.0
1001
REVIT
1002
{
1070
     3
1000
7518
1002
}
  0
LINE
  5
1CB
330
99
100
AcDbEntity
  8
G-IMPT
370
    40
100
AcDbLine
 10
108.6144900562563
 20
98.00420216350751
 30
0.0
 11
108.4915650597237
 21
97.90987849617081
 31
0.0
1001
REVIT
1002
{
1070
     3
1000
7518
1002
}
  0
LINE
  5
1CC
330
99
100
AcDbEntity
  8
G-IMPT
370
    40
100
AcDbLine
 10
108.4915650597237
 20
97.90987849617081
 30
0.0
 11
107.7489755665506
 21
98.08372069342192
 31
0.0
1001
REVIT
1002
{
1070
     3
1000
7518
1002
}
  0
HATCH
  5
1CD
330
99
100
AcDbEntity
  8
G-IMPT
370
    40
100
AcDbHatch
 10
0.0
 20
0.0
 30
0.0
210
0.0
220
0.0
230
1.0
  2
SOLID
 70
     1
 71
     0
 91
        1
 92
        0
 93
        3
 72
     1
 10
107.7489755665506
 20
98.08372069342192
 11
108.6144900562563
 21
98.00420216350751
 72
     1
 10
108.6144900562563
 20
98.00420216350751
 11
108.4915650597237
 21
97.90987849617081
 72
     1
 10
108.4915650597237
 20
97.90987849617081
 11
107.7489755665506
 21
98.08372069342192
 97
        0
 75
     0
 76
     1
 98
        1
 10
0.0
 20
0.0
450
        0
451
        0
460
0.0
461
0.0
452
        0
462
0.0
453
        0
470

1001
REVIT
1002
{
1070
     3
1000
7518
1002
}
  0
LINE
  5
1CE
330
99
100
AcDbEntity
  8
G-IMPT
370
    40
100
AcDbLine
 10
95.45708232020137
 20
98.08372069342192
 30
0.0
 11
95.03871966513925
 21
98.72122569161184
 31
0.0
1001
REVIT
1002
{
1070
     3
1000
7518
1002
}
  0
LINE
  5
1CF
330
99
100
AcDbEntity
  8
G-IMPT
370
    40
100
AcDbLine
 10
95.03871966513925
 20
98.72122569161184
 30
0.0
 11
112.0651902311059
 21
98.72122569161184
 31
0.0
1001
REVIT
1002
{
1070
     3
1000
7518
1002
}
  0
LINE
  5
1D0
330
99
100
AcDbEntity
  8
G-IMPT
370
    40
100
AcDbLine
 10
112.0651902311059
 20
98.72122569161184
 30
0.0
 11
95.45708232020137
 21
98.08372069342192
 31
0.0
1001
REVIT
1002
{
1070
     3
1000
7518
1002
}
  0
HATCH
  5
1D1
330
99
100
AcDbEntity
  8
G-IMPT
370
    40
100
AcDbHatch
 10
0.0
 20
0.0
 30
0.0
210
0.0
220
0.0
230
1.0
  2
SOLID
 70
     1
 71
     0
 91
        1
 92
        0
 93
        3
 72
     1
 10
95.45708232020137
 20
98.08372069342192
 11
95.03871966513925
 21
98.72122569161184
 72
     1
 10
95.03871966513925
 20
98.72122569161184
 11
112.0651902311059
 21
98.72122569161184
 72
     1
 10
112.0651902311059
 20
98.72122569161184
 11
95.45708232020137
 21
98.08372069342192
 97
        0
 75
     0
 76
     1
 98
        1
 10
0.0
 20
0.0
450
        0
451
        0
460
0.0
461
0.0
452
        0
462
0.0
453
        0
470

1001
REVIT
1002
{
1070
     3
1000
7518
1002
}
  0
LINE
  5
1D2
330
99
100
AcDbEntity
  8
G-IMPT
370
    40
100
AcDbLine
 10
95.45708232020137
 20
98.08372069342192
 30
0.0
 11
112.0651902311059
 21
98.72122569161179
 31
0.0
1001
REVIT
1002
{
1070
     3
1000
7518
1002
}
  0
LINE
  5
1D3
330
99
100
AcDbEntity
  8
G-IMPT
370
    40
100
AcDbLine
 10
112.0651902311059
 20
98.72122569161179
 30
0.0
 11
97.28990918999741
 21
98.08372069342192
 31
0.0
1001
REVIT
1002
{
1070
     3
1000
7518
1002
}
  0
LINE
  5
1D4
330
99
100
AcDbEntity
  8
G-IMPT
370
    40
100
AcDbLine
 10
97.28990918999741
 20
98.08372069342192
 30
0.0
 11
95.45708232020137
 21
98.08372069342192
 31
0.0
1001
REVIT
1002
{
1070
     3
1000
7518
1002
}
  0
HATCH
  5
1D5
330
99
100
AcDbEntity
  8
G-IMPT
370
    40
100
AcDbHatch
 10
0.0
 20
0.0
 30
0.0
210
0.0
220
0.0
230
1.0
  2
SOLID
 70
     1
 71
     0
 91
        1
 92
        0
 93
        3
 72
     1
 10
95.45708232020137
 20
98.08372069342192
 11
112.0651902311059
 21
98.72122569161179
 72
     1
 10
112.0651902311059
 20
98.72122569161179
 11
97.28990918999741
 21
98.08372069342192
 72
     1
 10
97.28990918999741
 20
98.08372069342192
 11
95.45708232020137
 21
98.08372069342192
 97
        0
 75
     0
 76
     1
 98
        1
 10
0.0
 20
0.0
450
        0
451
        0
460
0.0
461
0.0
452
        0
462
0.0
453
        0
470

1001
REVIT
1002
{
1070
     3
1000
7518
1002
}
  0
LINE
  5
1D6
330
99
100
AcDbEntity
  8
G-IMPT
370
    40
100
AcDbLine
 10
93.68402154398564
 20
93.43943701791292
 30
0.0
 11
93.68402154398564
 21
99.52055734678792
 31
0.0
1001
REVIT
1002
{
1070
     3
1000
7518
1002
}
  0
LINE
  5
1D7
330
99
100
AcDbEntity
  8
G-IMPT
370
    40
100
AcDbLine
 10
93.68402154398564
 20
99.52055734678792
 30
0.0
 11
93.69641765167902
 21
93.34323848162432
 31
0.0
1001
REVIT
1002
{
1070
     3
1000
7518
1002
}
  0
LINE
  5
1D8
330
99
100
AcDbEntity
  8
G-IMPT
370
    40
100
AcDbLine
 10
93.69641765167902
 20
93.34323848162432
 30
0.0
 11
93.68402154398564
 21
93.43943701791292
 31
0.0
1001
REVIT
1002
{
1070
     3
1000
7518
1002
}
  0
HATCH
  5
1D9
330
99
100
AcDbEntity
  8
G-IMPT
370
    40
100
AcDbHatch
 10
0.0
 20
0.0
 30
0.0
210
0.0
220
0.0
230
1.0
  2
SOLID
 70
     1
 71
     0
 91
        1
 92
        0
 93
        3
 72
     1
 10
93.68402154398564
 20
93.43943701791292
 11
93.68402154398564
 21
99.52055734678792
 72
     1
 10
93.68402154398564
 20
99.52055734678792
 11
93.69641765167902
 21
93.34323848162432
 72
     1
 10
93.69641765167902
 20
93.34323848162432
 11
93.68402154398564
 21
93.43943701791292
 97
        0
 75
     0
 76
     1
 98
        1
 10
0.0
 20
0.0
450
        0
451
        0
460
0.0
461
0.0
452
        0
462
0.0
453
        0
470

1001
REVIT
1002
{
1070
     3
1000
7518
1002
}
  0
LINE
  5
1DA
330
99
100
AcDbEntity
  8
G-IMPT
370
    40
100
AcDbLine
 10
93.68402154398571
 20
99.52055734678792
 30
0.0
 11
93.69641765167902
 21
93.34323848162432
 31
0.0
1001
REVIT
1002
{
1070
     3
1000
7518
1002
}
  0
LINE
  5
1DB
330
99
100
AcDbEntity
  8
G-IMPT
370
    40
100
AcDbLine
 10
93.69641765167902
 20
93.34323848162432
 30
0.0
 11
93.69641765167902
 21
99.61675588307649
 31
0.0
1001
REVIT
1002
{
1070
     3
1000
7518
1002
}
  0
LINE
  5
1DC
330
99
100
AcDbEntity
  8
G-IMPT
370
    40
100
AcDbLine
 10
93.69641765167902
 20
99.61675588307649
 30
0.0
 11
93.68402154398571
 21
99.52055734678792
 31
0.0
1001
REVIT
1002
{
1070
     3
1000
7518
1002
}
  0
HATCH
  5
1DD
330
99
100
AcDbEntity
  8
G-IMPT
370
    40
100
AcDbHatch
 10
0.0
 20
0.0
 30
0.0
210
0.0
220
0.0
230
1.0
  2
SOLID
 70
     1
 71
     0
 91
        1
 92
        0
 93
        3
 72
     1
 10
93.68402154398571
 20
99.52055734678792
 11
93.69641765167902
 21
93.34323848162432
 72
     1
 10
93.69641765167902
 20
93.34323848162432
 11
93.69641765167902
 21
99.61675588307649
 72
     1
 10
93.69641765167902
 20
99.61675588307649
 11
93.68402154398571
 21
99.52055734678792
 97
        0
 75
     0
 76
     1
 98
        1
 10
0.0
 20
0.0
450
        0
451
        0
460
0.0
461
0.0
452
        0
462
0.0
453
        0
470

1001
REVIT
1002
{
1070
     3
1000
7518
1002
}
  0
LINE
  5
1DE
330
99
100
AcDbEntity
  8
G-IMPT
370
    40
100
AcDbLine
 10
93.69641765167902
 20
93.34323848162432
 30
0.0
 11
93.69641765167902
 21
99.61675588307649
 31
0.0
1001
REVIT
1002
{
1070
     3
1000
7518
1002
}
  0
LINE
  5
1DF
330
99
100
AcDbEntity
  8
G-IMPT
370
    40
100
AcDbLine
 10
93.69641765167902
 20
99.61675588307649
 30
0.0
 11
93.73279608309806
 21
93.2533250143488
 31
0.0
1001
REVIT
1002
{
1070
     3
1000
7518
1002
}
  0
LINE
  5
1E0
330
99
100
AcDbEntity
  8
G-IMPT
370
    40
100
AcDbLine
 10
93.73279608309806
 20
93.2533250143488
 30
0.0
 11
93.69641765167902
 21
93.34323848162432
 31
0.0
1001
REVIT
1002
{
1070
     3
1000
7518
1002
}
  0
HATCH
  5
1E1
330
99
100
AcDbEntity
  8
G-IMPT
370
    40
100
AcDbHatch
 10
0.0
 20
0.0
 30
0.0
210
0.0
220
0.0
230
1.0
  2
SOLID
 70
     1
 71
     0
 91
        1
 92
        0
 93
        3
 72
     1
 10
93.69641765167902
 20
93.34323848162432
 11
93.69641765167902
 21
99.61675588307649
 72
     1
 10
93.69641765167902
 20
99.61675588307649
 11
93.73279608309806
 21
93.2533250143488
 72
     1
 10
93.73279608309806
 20
93.2533250143488
 11
93.69641765167902
 21
93.34323848162432
 97
        0
 75
     0
 76
     1
 98
        1
 10
0.0
 20
0.0
450
        0
451
        0
460
0.0
461
0.0
452
        0
462
0.0
453
        0
470

1001
REVIT
1002
{
1070
     3
1000
7518
1002
}
  0
LINE
  5
1E2
330
99
100
AcDbEntity
  8
G-IMPT
370
    40
100
AcDbLine
 10
93.6964176516791
 20
99.61675588307649
 30
0.0
 11
93.73279608309806
 21
93.2533250143488
 31
0.0
1001
REVIT
1002
{
1070
     3
1000
7518
1002
}
  0
LINE
  5
1E3
330
99
100
AcDbEntity
  8
G-IMPT
370
    40
100
AcDbLine
 10
93.73279608309806
 20
93.2533250143488
 30
0.0
 11
93.73279608309806
 21
99.70666935035199
 31
0.0
1001
REVIT
1002
{
1070
     3
1000
7518
1002
}
  0
LINE
  5
1E4
330
99
100
AcDbEntity
  8
G-IMPT
370
    40
100
AcDbLine
 10
93.73279608309806
 20
99.70666935035199
 30
0.0
 11
93.6964176516791
 21
99.61675588307649
 31
0.0
1001
REVIT
1002
{
1070
     3
1000
7518
1002
}
  0
HATCH
  5
1E5
330
99
100
AcDbEntity
  8
G-IMPT
370
    40
100
AcDbHatch
 10
0.0
 20
0.0
 30
0.0
210
0.0
220
0.0
230
1.0
  2
SOLID
 70
     1
 71
     0
 91
        1
 92
        0
 93
        3
 72
     1
 10
93.6964176516791
 20
99.61675588307649
 11
93.73279608309806
 21
93.2533250143488
 72
     1
 10
93.73279608309806
 20
93.2533250143488
 11
93.73279608309806
 21
99.70666935035199
 72
     1
 10
93.73279608309806
 20
99.70666935035199
 11
93.6964176516791
 21
99.61675588307649
 97
        0
 75
     0
 76
     1
 98
        1
 10
0.0
 20
0.0
450
        0
451
        0
460
0.0
461
0.0
452
        0
462
0.0
453
        0
470

1001
REVIT
1002
{
1070
     3
1000
7518
1002
}
  0
LINE
  5
1E6
330
99
100
AcDbEntity
  8
G-IMPT
370
    40
100
AcDbLine
 10
93.73279608309806
 20
93.2533250143488
 30
0.0
 11
93.73279608309806
 21
99.70666935035199
 31
0.0
1001
REVIT
1002
{
1070
     3
1000
7518
1002
}
  0
LINE
  5
1E7
330
99
100
AcDbEntity
  8
G-IMPT
370
    40
100
AcDbLine
 10
93.73279608309806
 20
99.70666935035199
 30
0.0
 11
93.79078007700631
 21
93.17557105418943
 31
0.0
1001
REVIT
1002
{
1070
     3
1000
7518
1002
}
  0
LINE
  5
1E8
330
99
100
AcDbEntity
  8
G-IMPT
370
    40
100
AcDbLine
 10
93.79078007700631
 20
93.17557105418943
 30
0.0
 11
93.73279608309806
 21
93.2533250143488
 31
0.0
1001
REVIT
1002
{
1070
     3
1000
7518
1002
}
  0
HATCH
  5
1E9
330
99
100
AcDbEntity
  8
G-IMPT
370
    40
100
AcDbHatch
 10
0.0
 20
0.0
 30
0.0
210
0.0
220
0.0
230
1.0
  2
SOLID
 70
     1
 71
     0
 91
        1
 92
        0
 93
        3
 72
     1
 10
93.73279608309806
 20
93.2533250143488
 11
93.73279608309806
 21
99.70666935035199
 72
     1
 10
93.73279608309806
 20
99.70666935035199
 11
93.79078007700631
 21
93.17557105418943
 72
     1
 10
93.79078007700631
 20
93.17557105418943
 11
93.73279608309806
 21
93.2533250143488
 97
        0
 75
     0
 76
     1
 98
        1
 10
0.0
 20
0.0
450
        0
451
        0
460
0.0
461
0.0
452
        0
462
0.0
453
        0
470

1001
REVIT
1002
{
1070
     3
1000
7518
1002
}
  0
LINE
  5
1EA
330
99
100
AcDbEntity
  8
G-IMPT
370
    40
100
AcDbLine
 10
93.73279608309815
 20
99.70666935035199
 30
0.0
 11
93.79078007700631
 21
93.17557105418943
 31
0.0
1001
REVIT
1002
{
1070
     3
1000
7518
1002
}
  0
LINE
  5
1EB
330
99
100
AcDbEntity
  8
G-IMPT
370
    40
100
AcDbLine
 10
93.79078007700631
 20
93.17557105418943
 30
0.0
 11
93.79078007700631
 21
99.78442331051134
 31
0.0
1001
REVIT
1002
{
1070
     3
1000
7518
1002
}
  0
LINE
  5
1EC
330
99
100
AcDbEntity
  8
G-IMPT
370
    40
100
AcDbLine
 10
93.79078007700631
 20
99.78442331051134
 30
0.0
 11
93.73279608309815
 21
99.70666935035199
 31
0.0
1001
REVIT
1002
{
1070
     3
1000
7518
1002
}
  0
HATCH
  5
1ED
330
99
100
AcDbEntity
  8
G-IMPT
370
    40
100
AcDbHatch
 10
0.0
 20
0.0
 30
0.0
210
0.0
220
0.0
230
1.0
  2
SOLID
 70
     1
 71
     0
 91
        1
 92
        0
 93
        3
 72
     1
 10
93.73279608309815
 20
99.70666935035199
 11
93.79078007700631
 21
93.17557105418943
 72
     1
 10
93.79078007700631
 20
93.17557105418943
 11
93.79078007700631
 21
99.78442331051134
 72
     1
 10
93.79078007700631
 20
99.78442331051134
 11
93.73279608309815
 21
99.70666935035199
 97
        0
 75
     0
 76
     1
 98
        1
 10
0.0
 20
0.0
450
        0
451
        0
460
0.0
461
0.0
452
        0
462
0.0
453
        0
470

1001
REVIT
1002
{
1070
     3
1000
7518
1002
}
  0
LINE
  5
1EE
330
99
100
AcDbEntity
  8
G-IMPT
370
    40
100
AcDbLine
 10
93.79078007700631
 20
93.17557105418943
 30
0.0
 11
93.79078007700631
 21
99.78442331051134
 31
0.0
1001
REVIT
1002
{
1070
     3
1000
7518
1002
}
  0
LINE
  5
1EF
330
99
100
AcDbEntity
  8
G-IMPT
370
    40
100
AcDbLine
 10
93.79078007700631
 20
99.78442331051134
 30
0.0
 11
93.86658128674664
 21
93.11505660573358
 31
0.0
1001
REVIT
1002
{
1070
     3
1000
7518
1002
}
  0
LINE
  5
1F0
330
99
100
AcDbEntity
  8
G-IMPT
370
    40
100
AcDbLine
 10
93.86658128674664
 20
93.11505660573358
 30
0.0
 11
93.79078007700631
 21
93.17557105418943
 31
0.0
1001
REVIT
1002
{
1070
     3
1000
7518
1002
}
  0
HATCH
  5
1F1
330
99
100
AcDbEntity
  8
G-IMPT
370
    40
100
AcDbHatch
 10
0.0
 20
0.0
 30
0.0
210
0.0
220
0.0
230
1.0
  2
SOLID
 70
     1
 71
     0
 91
        1
 92
        0
 93
        3
 72
     1
 10
93.79078007700631
 20
93.17557105418943
 11
93.79078007700631
 21
99.78442331051134
 72
     1
 10
93.79078007700631
 20
99.78442331051134
 11
93.86658128674664
 21
93.11505660573358
 72
     1
 10
93.86658128674664
 20
93.11505660573358
 11
93.79078007700631
 21
93.17557105418943
 97
        0
 75
     0
 76
     1
 98
        1
 10
0.0
 20
0.0
450
        0
451
        0
460
0.0
461
0.0
452
        0
462
0.0
453
        0
470

1001
REVIT
1002
{
1070
     3
1000
7518
1002
}
  0
LINE
  5
1F2
330
99
100
AcDbEntity
  8
G-IMPT
370
    40
100
AcDbLine
 10
93.79078007700638
 20
99.78442331051134
 30
0.0
 11
93.86658128674664
 21
93.11505660573358
 31
0.0
1001
REVIT
1002
{
1070
     3
1000
7518
1002
}
  0
LINE
  5
1F3
330
99
100
AcDbEntity
  8
G-IMPT
370
    40
100
AcDbLine
 10
93.86658128674664
 20
93.11505660573358
 30
0.0
 11
93.86658128674664
 21
99.84493775896718
 31
0.0
1001
REVIT
1002
{
1070
     3
1000
7518
1002
}
  0
LINE
  5
1F4
330
99
100
AcDbEntity
  8
G-IMPT
370
    40
100
AcDbLine
 10
93.86658128674664
 20
99.84493775896718
 30
0.0
 11
93.79078007700638
 21
99.78442331051134
 31
0.0
1001
REVIT
1002
{
1070
     3
1000
7518
1002
}
  0
HATCH
  5
1F5
330
99
100
AcDbEntity
  8
G-IMPT
370
    40
100
AcDbHatch
 10
0.0
 20
0.0
 30
0.0
210
0.0
220
0.0
230
1.0
  2
SOLID
 70
     1
 71
     0
 91
        1
 92
        0
 93
        3
 72
     1
 10
93.79078007700638
 20
99.78442331051134
 11
93.86658128674664
 21
93.11505660573358
 72
     1
 10
93.86658128674664
 20
93.11505660573358
 11
93.86658128674664
 21
99.84493775896718
 72
     1
 10
93.86658128674664
 20
99.84493775896718
 11
93.79078007700638
 21
99.78442331051134
 97
        0
 75
     0
 76
     1
 98
        1
 10
0.0
 20
0.0
450
        0
451
        0
460
0.0
461
0.0
452
        0
462
0.0
453
        0
470

1001
REVIT
1002
{
1070
     3
1000
7518
1002
}
  0
LINE
  5
1F6
330
99
100
AcDbEntity
  8
G-IMPT
370
    40
100
AcDbLine
 10
93.86658128674664
 20
93.11505660573358
 30
0.0
 11
93.86658128674664
 21
99.84493775896718
 31
0.0
1001
REVIT
1002
{
1070
     3
1000
7518
1002
}
  0
LINE
  5
1F7
330
99
100
AcDbEntity
  8
G-IMPT
370
    40
100
AcDbLine
 10
93.86658128674664
 20
99.84493775896718
 30
0.0
 11
93.95524728941458
 21
93.07573534124598
 31
0.0
1001
REVIT
1002
{
1070
     3
1000
7518
1002
}
  0
LINE
  5
1F8
330
99
100
AcDbEntity
  8
G-IMPT
370
    40
100
AcDbLine
 10
93.95524728941458
 20
93.07573534124598
 30
0.0
 11
93.86658128674664
 21
93.11505660573358
 31
0.0
1001
REVIT
1002
{
1070
     3
1000
7518
1002
}
  0
HATCH
  5
1F9
330
99
100
AcDbEntity
  8
G-IMPT
370
    40
100
AcDbHatch
 10
0.0
 20
0.0
 30
0.0
210
0.0
220
0.0
230
1.0
  2
SOLID
 70
     1
 71
     0
 91
        1
 92
        0
 93
        3
 72
     1
 10
93.86658128674664
 20
93.11505660573358
 11
93.86658128674664
 21
99.84493775896718
 72
     1
 10
93.86658128674664
 20
99.84493775896718
 11
93.95524728941458
 21
93.07573534124598
 72
     1
 10
93.95524728941458
 20
93.07573534124598
 11
93.86658128674664
 21
93.11505660573358
 97
        0
 75
     0
 76
     1
 98
        1
 10
0.0
 20
0.0
450
        0
451
        0
460
0.0
461
0.0
452
        0
462
0.0
453
        0
470

1001
REVIT
1002
{
1070
     3
1000
7518
1002
}
  0
LINE
  5
1FA
330
99
100
AcDbEntity
  8
G-IMPT
370
    40
100
AcDbLine
 10
93.86658128674671
 20
99.84493775896718
 30
0.0
 11
93.95524728941458
 21
93.07573534124598
 31
0.0
1001
REVIT
1002
{
1070
     3
1000
7518
1002
}
  0
LINE
  5
1FB
330
99
100
AcDbEntity
  8
G-IMPT
370
    40
100
AcDbLine
 10
93.95524728941458
 20
93.07573534124598
 30
0.0
 11
93.95524728941458
 21
99.88425902345477
 31
0.0
1001
REVIT
1002
{
1070
     3
1000
7518
1002
}
  0
LINE
  5
1FC
330
99
100
AcDbEntity
  8
G-IMPT
370
    40
100
AcDbLine
 10
93.95524728941458
 20
99.88425902345477
 30
0.0
 11
93.86658128674671
 21
99.84493775896718
 31
0.0
1001
REVIT
1002
{
1070
     3
1000
7518
1002
}
  0
HATCH
  5
1FD
330
99
100
AcDbEntity
  8
G-IMPT
370
    40
100
AcDbHatch
 10
0.0
 20
0.0
 30
0.0
210
0.0
220
0.0
230
1.0
  2
SOLID
 70
     1
 71
     0
 91
        1
 92
        0
 93
        3
 72
     1
 10
93.86658128674671
 20
99.84493775896718
 11
93.95524728941458
 21
93.07573534124598
 72
     1
 10
93.95524728941458
 20
93.07573534124598
 11
93.95524728941458
 21
99.88425902345477
 72
     1
 10
93.95524728941458
 20
99.88425902345477
 11
93.86658128674671
 21
99.84493775896718
 97
        0
 75
     0
 76
     1
 98
        1
 10
0.0
 20
0.0
450
        0
451
        0
460
0.0
461
0.0
452
        0
462
0.0
453
        0
470

1001
REVIT
1002
{
1070
     3
1000
7518
1002
}
  0
LINE
  5
1FE
330
99
100
AcDbEntity
  8
G-IMPT
370
    40
100
AcDbLine
 10
93.95524728941458
 20
93.07573534124598
 30
0.0
 11
93.95524728941458
 21
99.88425902345477
 31
0.0
1001
REVIT
1002
{
1070
     3
1000
7518
1002
}
  0
LINE
  5
1FF
330
99
100
AcDbEntity
  8
G-IMPT
370
    40
100
AcDbLine
 10
93.95524728941458
 20
99.88425902345477
 30
0.0
 11
94.05098514919862
 21
93.06017629005411
 31
0.0
1001
REVIT
1002
{
1070
     3
1000
7518
1002
}
  0
LINE
  5
200
330
99
100
AcDbEntity
  8
G-IMPT
370
    40
100
AcDbLine
 10
94.05098514919862
 20
93.06017629005411
 30
0.0
 11
93.95524728941458
 21
93.07573534124598
 31
0.0
1001
REVIT
1002
{
1070
     3
1000
7518
1002
}
  0
HATCH
  5
201
330
99
100
AcDbEntity
  8
G-IMPT
370
    40
100
AcDbHatch
 10
0.0
 20
0.0
 30
0.0
210
0.0
220
0.0
230
1.0
  2
SOLID
 70
     1
 71
     0
 91
        1
 92
        0
 93
        3
 72
     1
 10
93.95524728941458
 20
93.07573534124598
 11
93.95524728941458
 21
99.88425902345477
 72
     1
 10
93.95524728941458
 20
99.88425902345477
 11
94.05098514919862
 21
93.06017629005411
 72
     1
 10
94.05098514919862
 20
93.06017629005411
 11
93.95524728941458
 21
93.07573534124598
 97
        0
 75
     0
 76
     1
 98
        1
 10
0.0
 20
0.0
450
        0
451
        0
460
0.0
461
0.0
452
        0
462
0.0
453
        0
470

1001
REVIT
1002
{
1070
     3
1000
7518
1002
}
  0
LINE
  5
202
330
99
100
AcDbEntity
  8
G-IMPT
370
    40
100
AcDbLine
 10
103.9040235462177
 20
97.32668350807141
 30
0.0
 11
103.7745303434604
 21
96.09151757407843
 31
0.0
1001
REVIT
1002
{
1070
     3
1000
7518
1002
}
  0
LINE
  5
203
330
99
100
AcDbEntity
  8
G-IMPT
370
    40
100
AcDbLine
 10
103.7745303434604
 20
96.09151757407843
 30
0.0
 11
103.7745303434604
 21
96.86847679062239
 31
0.0
1001
REVIT
1002
{
1070
     3
1000
7518
1002
}
  0
LINE
  5
204
330
99
100
AcDbEntity
  8
G-IMPT
370
    40
100
AcDbLine
 10
103.7745303434604
 20
96.86847679062239
 30
0.0
 11
103.9040235462177
 21
97.32668350807141
 31
0.0
1001
REVIT
1002
{
1070
     3
1000
7518
1002
}
  0
HATCH
  5
205
330
99
100
AcDbEntity
  8
G-IMPT
370
    40
100
AcDbHatch
 10
0.0
 20
0.0
 30
0.0
210
0.0
220
0.0
230
1.0
  2
SOLID
 70
     1
 71
     0
 91
        1
 92
        0
 93
        3
 72
     1
 10
103.9040235462177
 20
97.32668350807141
 11
103.7745303434604
 21
96.09151757407843
 72
     1
 10
103.7745303434604
 20
96.09151757407843
 11
103.7745303434604
 21
96.86847679062239
 72
     1
 10
103.7745303434604
 20
96.86847679062239
 11
103.9040235462177
 21
97.32668350807141
 97
        0
 75
     0
 76
     1
 98
        1
 10
0.0
 20
0.0
450
        0
451
        0
460
0.0
461
0.0
452
        0
462
0.0
453
        0
470

1001
REVIT
1002
{
1070
     3
1000
7518
1002
}
  0
LINE
  5
206
330
99
100
AcDbEntity
  8
G-IMPT
370
    40
100
AcDbLine
 10
103.9040235462177
 20
97.32668350807141
 30
0.0
 11
103.7745303434604
 21
96.86847679062239
 31
0.0
1001
REVIT
1002
{
1070
     3
1000
7518
1002
}
  0
LINE
  5
207
330
99
100
AcDbEntity
  8
G-IMPT
370
    40
100
AcDbLine
 10
103.7745303434604
 20
96.86847679062239
 30
0.0
 11
102.0512746452283
 21
96.86847679062239
 31
0.0
1001
REVIT
1002
{
1070
     3
1000
7518
1002
}
  0
LINE
  5
208
330
99
100
AcDbEntity
  8
G-IMPT
370
    40
100
AcDbLine
 10
102.0512746452283
 20
96.86847679062239
 30
0.0
 11
103.9040235462177
 21
97.32668350807141
 31
0.0
1001
REVIT
1002
{
1070
     3
1000
7518
1002
}
  0
HATCH
  5
209
330
99
100
AcDbEntity
  8
G-IMPT
370
    40
100
AcDbHatch
 10
0.0
 20
0.0
 30
0.0
210
0.0
220
0.0
230
1.0
  2
SOLID
 70
     1
 71
     0
 91
        1
 92
        0
 93
        3
 72
     1
 10
103.9040235462177
 20
97.32668350807141
 11
103.7745303434604
 21
96.86847679062239
 72
     1
 10
103.7745303434604
 20
96.86847679062239
 11
102.0512746452283
 21
96.86847679062239
 72
     1
 10
102.0512746452283
 20
96.86847679062239
 11
103.9040235462177
 21
97.32668350807141
 97
        0
 75
     0
 76
     1
 98
        1
 10
0.0
 20
0.0
450
        0
451
        0
460
0.0
461
0.0
452
        0
462
0.0
453
        0
470

1001
REVIT
1002
{
1070
     3
1000
7518
1002
}
  0
LINE
  5
20A
330
99
100
AcDbEntity
  8
G-IMPT
370
    40
100
AcDbLine
 10
103.9040235462177
 20
97.32668350807141
 30
0.0
 11
102.0512746452283
 21
96.86847679062239
 31
0.0
1001
REVIT
1002
{
1070
     3
1000
7518
1002
}
  0
LINE
  5
20B
330
99
100
AcDbEntity
  8
G-IMPT
370
    40
100
AcDbLine
 10
102.0512746452283
 20
96.86847679062239
 30
0.0
 11
102.0512746452283
 21
97.32668350807141
 31
0.0
1001
REVIT
1002
{
1070
     3
1000
7518
1002
}
  0
LINE
  5
20C
330
99
100
AcDbEntity
  8
G-IMPT
370
    40
100
AcDbLine
 10
102.0512746452283
 20
97.32668350807141
 30
0.0
 11
103.9040235462177
 21
97.32668350807141
 31
0.0
1001
REVIT
1002
{
1070
     3
1000
7518
1002
}
  0
HATCH
  5
20D
330
99
100
AcDbEntity
  8
G-IMPT
370
    40
100
AcDbHatch
 10
0.0
 20
0.0
 30
0.0
210
0.0
220
0.0
230
1.0
  2
SOLID
 70
     1
 71
     0
 91
        1
 92
        0
 93
        3
 72
     1
 10
103.9040235462177
 20
97.32668350807141
 11
102.0512746452283
 21
96.86847679062239
 72
     1
 10
102.0512746452283
 20
96.86847679062239
 11
102.0512746452283
 21
97.32668350807141
 72
     1
 10
102.0512746452283
 20
97.32668350807141
 11
103.9040235462177
 21
97.32668350807141
 97
        0
 75
     0
 76
     1
 98
        1
 10
0.0
 20
0.0
450
        0
451
        0
460
0.0
461
0.0
452
        0
462
0.0
453
        0
470

1001
REVIT
1002
{
1070
     3
1000
7518
1002
}
  0
LINE
  5
20E
330
99
100
AcDbEntity
  8
G-IMPT
370
    40
100
AcDbLine
 10
97.26998715880394
 20
94.8762736712789
 30
0.0
 11
96.6723262230009
 21
94.8762736712789
 31
0.0
1001
REVIT
1002
{
1070
     3
1000
7518
1002
}
  0
LINE
  5
20F
330
99
100
AcDbEntity
  8
G-IMPT
370
    40
100
AcDbLine
 10
96.6723262230009
 20
94.8762736712789
 30
0.0
 11
96.6723262230009
 21
96.71568489421288
 31
0.0
1001
REVIT
1002
{
1070
     3
1000
7518
1002
}
  0
LINE
  5
210
330
99
100
AcDbEntity
  8
G-IMPT
370
    40
100
AcDbLine
 10
96.6723262230009
 20
96.71568489421288
 30
0.0
 11
97.26998715880394
 21
94.8762736712789
 31
0.0
1001
REVIT
1002
{
1070
     3
1000
7518
1002
}
  0
HATCH
  5
211
330
99
100
AcDbEntity
  8
G-IMPT
370
    40
100
AcDbHatch
 10
0.0
 20
0.0
 30
0.0
210
0.0
220
0.0
230
1.0
  2
SOLID
 70
     1
 71
     0
 91
        1
 92
        0
 93
        3
 72
     1
 10
97.26998715880394
 20
94.8762736712789
 11
96.6723262230009
 21
94.8762736712789
 72
     1
 10
96.6723262230009
 20
94.8762736712789
 11
96.6723262230009
 21
96.71568489421288
 72
     1
 10
96.6723262230009
 20
96.71568489421288
 11
97.26998715880394
 21
94.8762736712789
 97
        0
 75
     0
 76
     1
 98
        1
 10
0.0
 20
0.0
450
        0
451
        0
460
0.0
461
0.0
452
        0
462
0.0
453
        0
470

1001
REVIT
1002
{
1070
     3
1000
7518
1002
}
  0
LINE
  5
212
330
99
100
AcDbEntity
  8
G-IMPT
370
    40
100
AcDbLine
 10
107.6095213481966
 20
96.09151757407843
 30
0.0
 11
105.9958368215283
 21
94.8762736712789
 31
0.0
1001
REVIT
1002
{
1070
     3
1000
7518
1002
}
  0
LINE
  5
213
330
99
100
AcDbEntity
  8
G-IMPT
370
    40
100
AcDbLine
 10
105.9958368215283
 20
94.8762736712789
 30
0.0
 11
105.9958368215283
 21
96.09151757407843
 31
0.0
1001
REVIT
1002
{
1070
     3
1000
7518
1002
}
  0
LINE
  5
214
330
99
100
AcDbEntity
  8
G-IMPT
370
    40
100
AcDbLine
 10
105.9958368215283
 20
96.09151757407843
 30
0.0
 11
107.6095213481966
 21
96.09151757407843
 31
0.0
1001
REVIT
1002
{
1070
     3
1000
7518
1002
}
  0
HATCH
  5
215
330
99
100
AcDbEntity
  8
G-IMPT
370
    40
100
AcDbHatch
 10
0.0
 20
0.0
 30
0.0
210
0.0
220
0.0
230
1.0
  2
SOLID
 70
     1
 71
     0
 91
        1
 92
        0
 93
        3
 72
     1
 10
107.6095213481966
 20
96.09151757407843
 11
105.9958368215283
 21
94.8762736712789
 72
     1
 10
105.9958368215283
 20
94.8762736712789
 11
105.9958368215283
 21
96.09151757407843
 72
     1
 10
105.9958368215283
 20
96.09151757407843
 11
107.6095213481966
 21
96.09151757407843
 97
        0
 75
     0
 76
     1
 98
        1
 10
0.0
 20
0.0
450
        0
451
        0
460
0.0
461
0.0
452
        0
462
0.0
453
        0
470

1001
REVIT
1002
{
1070
     3
1000
7518
1002
}
  0
LINE
  5
216
330
99
100
AcDbEntity
  8
G-IMPT
370
    40
100
AcDbLine
 10
107.7489755665506
 20
97.32668350807141
 30
0.0
 11
105.9958368215283
 21
96.86847679062239
 31
0.0
1001
REVIT
1002
{
1070
     3
1000
7518
1002
}
  0
LINE
  5
217
330
99
100
AcDbEntity
  8
G-IMPT
370
    40
100
AcDbLine
 10
105.9958368215283
 20
96.86847679062239
 30
0.0
 11
105.9958368215283
 21
97.32668350807141
 31
0.0
1001
REVIT
1002
{
1070
     3
1000
7518
1002
}
  0
LINE
  5
218
330
99
100
AcDbEntity
  8
G-IMPT
370
    40
100
AcDbLine
 10
105.9958368215283
 20
97.32668350807141
 30
0.0
 11
107.7489755665506
 21
97.32668350807141
 31
0.0
1001
REVIT
1002
{
1070
     3
1000
7518
1002
}
  0
HATCH
  5
219
330
99
100
AcDbEntity
  8
G-IMPT
370
    40
100
AcDbHatch
 10
0.0
 20
0.0
 30
0.0
210
0.0
220
0.0
230
1.0
  2
SOLID
 70
     1
 71
     0
 91
        1
 92
        0
 93
        3
 72
     1
 10
107.7489755665506
 20
97.32668350807141
 11
105.9958368215283
 21
96.86847679062239
 72
     1
 10
105.9958368215283
 20
96.86847679062239
 11
105.9958368215283
 21
97.32668350807141
 72
     1
 10
105.9958368215283
 20
97.32668350807141
 11
107.7489755665506
 21
97.32668350807141
 97
        0
 75
     0
 76
     1
 98
        1
 10
0.0
 20
0.0
450
        0
451
        0
460
0.0
461
0.0
452
        0
462
0.0
453
        0
470

1001
REVIT
1002
{
1070
     3
1000
7518
1002
}
  0
LINE
  5
21A
330
99
100
AcDbEntity
  8
G-IMPT
370
    40
100
AcDbLine
 10
103.9040235462177
 20
98.08372069342192
 30
0.0
 11
104.7606708875354
 21
98.08372069342192
 31
0.0
1001
REVIT
1002
{
1070
     3
1000
7518
1002
}
  0
LINE
  5
21B
330
99
100
AcDbEntity
  8
G-IMPT
370
    40
100
AcDbLine
 10
104.7606708875354
 20
98.08372069342192
 30
0.0
 11
103.9040235462177
 21
97.32668350807141
 31
0.0
1001
REVIT
1002
{
1070
     3
1000
7518
1002
}
  0
LINE
  5
21C
330
99
100
AcDbEntity
  8
G-IMPT
370
    40
100
AcDbLine
 10
103.9040235462177
 20
97.32668350807141
 30
0.0
 11
103.9040235462177
 21
98.08372069342192
 31
0.0
1001
REVIT
1002
{
1070
     3
1000
7518
1002
}
  0
HATCH
  5
21D
330
99
100
AcDbEntity
  8
G-IMPT
370
    40
100
AcDbHatch
 10
0.0
 20
0.0
 30
0.0
210
0.0
220
0.0
230
1.0
  2
SOLID
 70
     1
 71
     0
 91
        1
 92
        0
 93
        3
 72
     1
 10
103.9040235462177
 20
98.08372069342192
 11
104.7606708875354
 21
98.08372069342192
 72
     1
 10
104.7606708875354
 20
98.08372069342192
 11
103.9040235462177
 21
97.32668350807141
 72
     1
 10
103.9040235462177
 20
97.32668350807141
 11
103.9040235462177
 21
98.08372069342192
 97
        0
 75
     0
 76
     1
 98
        1
 10
0.0
 20
0.0
450
        0
451
        0
460
0.0
461
0.0
452
        0
462
0.0
453
        0
470

1001
REVIT
1002
{
1070
     3
1000
7518
1002
}
  0
LINE
  5
21E
330
99
100
AcDbEntity
  8
G-IMPT
370
    40
100
AcDbLine
 10
98.74421746711812
 20
94.8762736712789
 30
0.0
 11
98.14655653131509
 21
94.8762736712789
 31
0.0
1001
REVIT
1002
{
1070
     3
1000
7518
1002
}
  0
LINE
  5
21F
330
99
100
AcDbEntity
  8
G-IMPT
370
    40
100
AcDbLine
 10
98.14655653131509
 20
94.8762736712789
 30
0.0
 11
98.74421746711812
 21
96.71568489421272
 31
0.0
1001
REVIT
1002
{
1070
     3
1000
7518
1002
}
  0
LINE
  5
220
330
99
100
AcDbEntity
  8
G-IMPT
370
    40
100
AcDbLine
 10
98.74421746711812
 20
96.71568489421272
 30
0.0
 11
98.74421746711812
 21
94.8762736712789
 31
0.0
1001
REVIT
1002
{
1070
     3
1000
7518
1002
}
  0
HATCH
  5
221
330
99
100
AcDbEntity
  8
G-IMPT
370
    40
100
AcDbHatch
 10
0.0
 20
0.0
 30
0.0
210
0.0
220
0.0
230
1.0
  2
SOLID
 70
     1
 71
     0
 91
        1
 92
        0
 93
        3
 72
     1
 10
98.74421746711812
 20
94.8762736712789
 11
98.14655653131509
 21
94.8762736712789
 72
     1
 10
98.14655653131509
 20
94.8762736712789
 11
98.74421746711812
 21
96.71568489421272
 72
     1
 10
98.74421746711812
 20
96.71568489421272
 11
98.74421746711812
 21
94.8762736712789
 97
        0
 75
     0
 76
     1
 98
        1
 10
0.0
 20
0.0
450
        0
451
        0
460
0.0
461
0.0
452
        0
462
0.0
453
        0
470

1001
REVIT
1002
{
1070
     3
1000
7518
1002
}
  0
LINE
  5
222
330
99
100
AcDbEntity
  8
G-IMPT
370
    40
100
AcDbLine
 10
112.0651902311059
 20
94.23876867308901
 30
0.0
 11
108.3177228624726
 21
94.8762736712789
 31
0.0
1001
REVIT
1002
{
1070
     3
1000
7518
1002
}
  0
LINE
  5
223
330
99
100
AcDbEntity
  8
G-IMPT
370
    40
100
AcDbLine
 10
108.3177228624726
 20
94.8762736712789
 30
0.0
 11
109.4276934844551
 21
94.8762736712789
 31
0.0
1001
REVIT
1002
{
1070
     3
1000
7518
1002
}
  0
LINE
  5
224
330
99
100
AcDbEntity
  8
G-IMPT
370
    40
100
AcDbLine
 10
109.4276934844551
 20
94.8762736712789
 30
0.0
 11
112.0651902311059
 21
94.23876867308901
 31
0.0
1001
REVIT
1002
{
1070
     3
1000
7518
1002
}
  0
HATCH
  5
225
330
99
100
AcDbEntity
  8
G-IMPT
370
    40
100
AcDbHatch
 10
0.0
 20
0.0
 30
0.0
210
0.0
220
0.0
230
1.0
  2
SOLID
 70
     1
 71
     0
 91
        1
 92
        0
 93
        3
 72
     1
 10
112.0651902311059
 20
94.23876867308901
 11
108.3177228624726
 21
94.8762736712789
 72
     1
 10
108.3177228624726
 20
94.8762736712789
 11
109.4276934844551
 21
94.8762736712789
 72
     1
 10
109.4276934844551
 20
94.8762736712789
 11
112.0651902311059
 21
94.23876867308901
 97
        0
 75
     0
 76
     1
 98
        1
 10
0.0
 20
0.0
450
        0
451
        0
460
0.0
461
0.0
452
        0
462
0.0
453
        0
470

1001
REVIT
1002
{
1070
     3
1000
7518
1002
}
  0
ENDBLK
  5
227
330
99
100
AcDbEntity
  8
0
100
AcDbBlockEnd
  0
BLOCK
  5
27B
330
228
100
AcDbEntity
  8
0
100
AcDbBlockBegin
  2
MEFA Logo Dübel Rot klein_0001 - MEFA Dübel rot_dwg-15010-Ansicht _1_
 70
     0
 10
0.0
 20
0.0
 30
0.0
  3
MEFA Logo Dübel Rot klein_0001 - MEFA Dübel rot_dwg-15010-Ansicht _1_
  1

  0
ARC
  5
229
330
228
100
AcDbEntity
  8
G-IMPT
370
    40
100
AcDbCircle
 10
108.9112572500401
 20
97.49018630585442
 30
0.0
 40
0.5935343875675018
100
AcDbArc
 50
90.0
 51
180.0
1001
REVIT
1002
{
1070
     3
1000
7518
1002
}
  0
ARC
  5
22A
330
228
100
AcDbEntity
  8
G-IMPT
370
    40
100
AcDbCircle
 10
111.040237261703
 20
97.49018630585442
 30
0.0
 40
0.5935343875675018
100
AcDbArc
 50
0.0
 51
90.0
1001
REVIT
1002
{
1070
     3
1000
7518
1002
}
  0
ARC
  5
22B
330
228
100
AcDbEntity
  8
G-IMPT
370
    40
100
AcDbCircle
 10
-94.06348831302024
 20
99.52055734678792
 30
0.0
 40
0.3794667690344877
210
0.0
220
0.0
230
-1.0
100
AcDbArc
 50
0.0
 51
146.8530041677435
1001
REVIT
1002
{
1070
     3
1000
7518
1002
}
  0
ARC
  5
22C
330
228
100
AcDbEntity
  8
G-IMPT
370
    40
100
AcDbCircle
 10
-112.0651902311059
 20
98.27607490093619
 30
0.0
 40
0.4451507906756305
210
0.0
220
0.0
230
-1.0
100
AcDbArc
 50
90.00000000000365
 51
179.9999999999963
1001
REVIT
1002
{
1070
     3
1000
7518
1002
}
  0
ARC
  5
22D
330
228
100
AcDbEntity
  8
G-IMPT
370
    40
100
AcDbCircle
 10
94.06348831302024
 20
93.43943701791292
 30
0.0
 40
0.3794667690345046
100
AcDbArc
 50
179.9999999999957
 51
326.8530041677436
1001
REVIT
1002
{
1070
     3
1000
7518
1002
}
  0
ARC
  5
22E
330
228
100
AcDbEntity
  8
G-IMPT
370
    40
100
AcDbCircle
 10
112.0651902311059
 20
94.68391946376467
 30
0.0
 40
0.4451507906756305
100
AcDbArc
 50
270.0000000000037
 51
0.0
1001
REVIT
1002
{
1070
     3
1000
7518
1002
}
  0
LINE
  5
22F
330
228
100
AcDbEntity
  8
G-IMPT
370
    40
100
AcDbLine
 10
108.9112572500401
 20
98.08372069342192
 30
0.0
 11
111.0402372617029
 21
98.08372069342192
 31
0.0
1001
REVIT
1002
{
1070
     3
1000
7518
1002
}
  0
POLYLINE
  5
230
330
228
100
AcDbEntity
  8
G-IMPT
370
    40
100
AcDb3dPolyline
 66
     1
 10
0.0
 20
0.0
 30
0.0
 70
     8
1001
REVIT
1002
{
1070
     3
1000
7518
1002
}
  0
VERTEX
  5
231
330
230
100
AcDbEntity
  8
G-IMPT
370
    40
100
AcDbVertex
100
AcDb3dPolylineVertex
 10
111.6337716492705
 20
97.49018630585442
 30
0.0
 70
    32
  0
VERTEX
  5
232
330
230
100
AcDbEntity
  8
G-IMPT
370
    40
100
AcDbVertex
100
AcDb3dPolylineVertex
 10
111.6337716492705
 20
94.8762736712789
 30
0.0
 70
    32
  0
VERTEX
  5
233
330
230
100
AcDbEntity
  8
G-IMPT
370
    40
100
AcDbVertex
100
AcDb3dPolylineVertex
 10
110.5376641064376
 20
94.8762736712789
 30
0.0
 70
    32
  0
VERTEX
  5
234
330
230
100
AcDbEntity
  8
G-IMPT
370
    40
100
AcDbVertex
100
AcDb3dPolylineVertex
 10
110.5376641064376
 20
95.65257987693556
 30
0.0
 70
    32
  0
VERTEX
  5
235
330
230
100
AcDbEntity
  8
G-IMPT
370
    40
100
AcDbVertex
100
AcDb3dPolylineVertex
 10
109.4276934844551
 20
95.65257987693556
 30
0.0
 70
    32
  0
VERTEX
  5
236
330
230
100
AcDbEntity
  8
G-IMPT
370
    40
100
AcDbVertex
100
AcDb3dPolylineVertex
 10
109.4276934844551
 20
94.8762736712789
 30
0.0
 70
    32
  0
VERTEX
  5
237
330
230
100
AcDbEntity
  8
G-IMPT
370
    40
100
AcDbVertex
100
AcDb3dPolylineVertex
 10
108.3177228624726
 20
94.8762736712789
 30
0.0
 70
    32
  0
VERTEX
  5
238
330
230
100
AcDbEntity
  8
G-IMPT
370
    40
100
AcDbVertex
100
AcDb3dPolylineVertex
 10
108.3177228624726
 20
97.49018630585442
 30
0.0
 70
    32
  0
SEQEND
  5
239
330
230
100
AcDbEntity
  8
G-IMPT
370
    40
  0
POLYLINE
  5
23A
330
228
100
AcDbEntity
  8
G-IMPT
370
    40
100
AcDb3dPolyline
 66
     1
 10
0.0
 20
0.0
 30
0.0
 70
     8
1001
REVIT
1002
{
1070
     3
1000
7518
1002
}
  0
VERTEX
  5
23B
330
23A
100
AcDbEntity
  8
G-IMPT
370
    40
100
AcDbVertex
100
AcDb3dPolylineVertex
 10
95.45708232020137
 20
98.08372069342192
 30
0.0
 70
    32
  0
VERTEX
  5
23C
330
23A
100
AcDbEntity
  8
G-IMPT
370
    40
100
AcDbVertex
100
AcDb3dPolylineVertex
 10
95.45708232020137
 20
94.8762736712789
 30
0.0
 70
    32
  0
VERTEX
  5
23D
330
23A
100
AcDbEntity
  8
G-IMPT
370
    40
100
AcDbVertex
100
AcDb3dPolylineVertex
 10
96.6723262230009
 20
94.8762736712789
 30
0.0
 70
    32
  0
VERTEX
  5
23E
330
23A
100
AcDbEntity
  8
G-IMPT
370
    40
100
AcDbVertex
100
AcDb3dPolylineVertex
 10
96.6723262230009
 20
96.71568489421272
 30
0.0
 70
    32
  0
VERTEX
  5
23F
330
23A
100
AcDbEntity
  8
G-IMPT
370
    40
100
AcDbVertex
100
AcDb3dPolylineVertex
 10
97.26998715880394
 20
94.8762736712789
 30
0.0
 70
    32
  0
VERTEX
  5
240
330
23A
100
AcDbEntity
  8
G-IMPT
370
    40
100
AcDbVertex
100
AcDb3dPolylineVertex
 10
98.14655653131509
 20
94.8762736712789
 30
0.0
 70
    32
  0
VERTEX
  5
241
330
23A
100
AcDbEntity
  8
G-IMPT
370
    40
100
AcDbVertex
100
AcDb3dPolylineVertex
 10
98.74421746711812
 20
96.71568489421272
 30
0.0
 70
    32
  0
VERTEX
  5
242
330
23A
100
AcDbEntity
  8
G-IMPT
370
    40
100
AcDbVertex
100
AcDb3dPolylineVertex
 10
98.74421746711812
 20
94.8762736712789
 30
0.0
 70
    32
  0
VERTEX
  5
243
330
23A
100
AcDbEntity
  8
G-IMPT
370
    40
100
AcDbVertex
100
AcDb3dPolylineVertex
 10
99.95946136991763
 20
94.8762736712789
 30
0.0
 70
    32
  0
VERTEX
  5
244
330
23A
100
AcDbEntity
  8
G-IMPT
370
    40
100
AcDbVertex
100
AcDb3dPolylineVertex
 10
99.95946136991763
 20
98.08372069342192
 30
0.0
 70
    32
  0
VERTEX
  5
245
330
23A
100
AcDbEntity
  8
G-IMPT
370
    40
100
AcDbVertex
100
AcDb3dPolylineVertex
 10
98.12663450012166
 20
98.08372069342192
 30
0.0
 70
    32
  0
VERTEX
  5
246
330
23A
100
AcDbEntity
  8
G-IMPT
370
    40
100
AcDbVertex
100
AcDb3dPolylineVertex
 10
97.70827184505954
 20
96.39477516002296
 30
0.0
 70
    32
  0
VERTEX
  5
247
330
23A
100
AcDbEntity
  8
G-IMPT
370
    40
100
AcDbVertex
100
AcDb3dPolylineVertex
 10
97.28990918999741
 20
98.08372069342192
 30
0.0
 70
    32
  0
VERTEX
  5
248
330
23A
100
AcDbEntity
  8
G-IMPT
370
    40
100
AcDbVertex
100
AcDb3dPolylineVertex
 10
95.45708232020137
 20
98.08372069342192
 30
0.0
 70
    32
  0
SEQEND
  5
249
330
23A
100
AcDbEntity
  8
G-IMPT
370
    40
  0
POLYLINE
  5
24A
330
228
100
AcDbEntity
  8
G-IMPT
370
    40
100
AcDb3dPolyline
 66
     1
 10
0.0
 20
0.0
 30
0.0
 70
     8
1001
REVIT
1002
{
1070
     3
1000
7518
1002
}
  0
VERTEX
  5
24B
330
24A
100
AcDbEntity
  8
G-IMPT
370
    40
100
AcDbVertex
100
AcDb3dPolylineVertex
 10
94.38120464619442
 20
99.72804556437106
 30
0.0
 70
    32
  0
VERTEX
  5
24C
330
24A
100
AcDbEntity
  8
G-IMPT
370
    40
100
AcDbVertex
100
AcDb3dPolylineVertex
 10
95.03871966513925
 20
98.72122569161184
 30
0.0
 70
    32
  0
VERTEX
  5
24D
330
24A
100
AcDbEntity
  8
G-IMPT
370
    40
100
AcDbVertex
100
AcDb3dPolylineVertex
 10
112.065190231106
 20
98.72122569161184
 30
0.0
 70
    32
  0
SEQEND
  5
24E
330
24A
100
AcDbEntity
  8
G-IMPT
370
    40
  0
POLYLINE
  5
24F
330
228
100
AcDbEntity
  8
G-IMPT
370
    40
100
AcDb3dPolyline
 66
     1
 10
0.0
 20
0.0
 30
0.0
 70
     8
1001
REVIT
1002
{
1070
     3
1000
7518
1002
}
  0
VERTEX
  5
250
330
24F
100
AcDbEntity
  8
G-IMPT
370
    40
100
AcDbVertex
100
AcDb3dPolylineVertex
 10
100.7961866800419
 20
98.08372069342192
 30
0.0
 70
    32
  0
VERTEX
  5
251
330
24F
100
AcDbEntity
  8
G-IMPT
370
    40
100
AcDbVertex
100
AcDb3dPolylineVertex
 10
103.9040235462178
 20
98.08372069342192
 30
0.0
 70
    32
  0
VERTEX
  5
252
330
24F
100
AcDbEntity
  8
G-IMPT
370
    40
100
AcDbVertex
100
AcDb3dPolylineVertex
 10
103.9040235462178
 20
97.32668350807141
 30
0.0
 70
    32
  0
VERTEX
  5
253
330
24F
100
AcDbEntity
  8
G-IMPT
370
    40
100
AcDbVertex
100
AcDb3dPolylineVertex
 10
102.0512746452283
 20
97.32668350807141
 30
0.0
 70
    32
  0
VERTEX
  5
254
330
24F
100
AcDbEntity
  8
G-IMPT
370
    40
100
AcDbVertex
100
AcDb3dPolylineVertex
 10
102.0512746452283
 20
96.86847679062239
 30
0.0
 70
    32
  0
VERTEX
  5
255
330
24F
100
AcDbEntity
  8
G-IMPT
370
    40
100
AcDbVertex
100
AcDb3dPolylineVertex
 10
103.7745303434604
 20
96.86847679062239
 30
0.0
 70
    32
  0
VERTEX
  5
256
330
24F
100
AcDbEntity
  8
G-IMPT
370
    40
100
AcDbVertex
100
AcDb3dPolylineVertex
 10
103.7745303434604
 20
96.09151757407843
 30
0.0
 70
    32
  0
VERTEX
  5
257
330
24F
100
AcDbEntity
  8
G-IMPT
370
    40
100
AcDbVertex
100
AcDb3dPolylineVertex
 10
102.0512746452283
 20
96.09151757407843
 30
0.0
 70
    32
  0
VERTEX
  5
258
330
24F
100
AcDbEntity
  8
G-IMPT
370
    40
100
AcDbVertex
100
AcDb3dPolylineVertex
 10
102.0512746452283
 20
95.63331085662943
 30
0.0
 70
    32
  0
VERTEX
  5
259
330
24F
100
AcDbEntity
  8
G-IMPT
370
    40
100
AcDbVertex
100
AcDb3dPolylineVertex
 10
103.9040235462177
 20
95.63331085662943
 30
0.0
 70
    32
  0
VERTEX
  5
25A
330
24F
100
AcDbEntity
  8
G-IMPT
370
    40
100
AcDbVertex
100
AcDb3dPolylineVertex
 10
103.9040235462177
 20
94.8762736712789
 30
0.0
 70
    32
  0
VERTEX
  5
25B
330
24F
100
AcDbEntity
  8
G-IMPT
370
    40
100
AcDbVertex
100
AcDb3dPolylineVertex
 10
100.7961866800419
 20
94.8762736712789
 30
0.0
 70
    32
  0
VERTEX
  5
25C
330
24F
100
AcDbEntity
  8
G-IMPT
370
    40
100
AcDbVertex
100
AcDb3dPolylineVertex
 10
100.7961866800419
 20
98.08372069342192
 30
0.0
 70
    32
  0
SEQEND
  5
25D
330
24F
100
AcDbEntity
  8
G-IMPT
370
    40
  0
POLYLINE
  5
25E
330
228
100
AcDbEntity
  8
G-IMPT
370
    40
100
AcDb3dPolyline
 66
     1
 10
0.0
 20
0.0
 30
0.0
 70
     8
1001
REVIT
1002
{
1070
     3
1000
7518
1002
}
  0
VERTEX
  5
25F
330
25E
100
AcDbEntity
  8
G-IMPT
370
    40
100
AcDbVertex
100
AcDb3dPolylineVertex
 10
104.7606708875354
 20
98.08372069342192
 30
0.0
 70
    32
  0
VERTEX
  5
260
330
25E
100
AcDbEntity
  8
G-IMPT
370
    40
100
AcDbVertex
100
AcDb3dPolylineVertex
 10
107.7489755665506
 20
98.08372069342192
 30
0.0
 70
    32
  0
VERTEX
  5
261
330
25E
100
AcDbEntity
  8
G-IMPT
370
    40
100
AcDbVertex
100
AcDb3dPolylineVertex
 10
107.7489755665506
 20
97.32668350807141
 30
0.0
 70
    32
  0
VERTEX
  5
262
330
25E
100
AcDbEntity
  8
G-IMPT
370
    40
100
AcDbVertex
100
AcDb3dPolylineVertex
 10
105.9958368215283
 20
97.32668350807141
 30
0.0
 70
    32
  0
VERTEX
  5
263
330
25E
100
AcDbEntity
  8
G-IMPT
370
    40
100
AcDbVertex
100
AcDb3dPolylineVertex
 10
105.9958368215283
 20
96.86847679062239
 30
0.0
 70
    32
  0
VERTEX
  5
264
330
25E
100
AcDbEntity
  8
G-IMPT
370
    40
100
AcDbVertex
100
AcDb3dPolylineVertex
 10
107.6095213481966
 20
96.86847679062239
 30
0.0
 70
    32
  0
VERTEX
  5
265
330
25E
100
AcDbEntity
  8
G-IMPT
370
    40
100
AcDbVertex
100
AcDb3dPolylineVertex
 10
107.6095213481966
 20
96.09151757407843
 30
0.0
 70
    32
  0
VERTEX
  5
266
330
25E
100
AcDbEntity
  8
G-IMPT
370
    40
100
AcDbVertex
100
AcDb3dPolylineVertex
 10
105.9958368215283
 20
96.09151757407843
 30
0.0
 70
    32
  0
VERTEX
  5
267
330
25E
100
AcDbEntity
  8
G-IMPT
370
    40
100
AcDbVertex
100
AcDb3dPolylineVertex
 10
105.9958368215283
 20
94.8762736712789
 30
0.0
 70
    32
  0
VERTEX
  5
268
330
25E
100
AcDbEntity
  8
G-IMPT
370
    40
100
AcDbVertex
100
AcDb3dPolylineVertex
 10
104.7606708875354
 20
94.8762736712789
 30
0.0
 70
    32
  0
VERTEX
  5
269
330
25E
100
AcDbEntity
  8
G-IMPT
370
    40
100
AcDbVertex
100
AcDb3dPolylineVertex
 10
104.7606708875354
 20
98.08372069342192
 30
0.0
 70
    32
  0
SEQEND
  5
26A
330
25E
100
AcDbEntity
  8
G-IMPT
370
    40
  0
POLYLINE
  5
26B
330
228
100
AcDbEntity
  8
G-IMPT
370
    40
100
AcDb3dPolyline
 66
     1
 10
0.0
 20
0.0
 30
0.0
 70
     8
1001
REVIT
1002
{
1070
     3
1000
7518
1002
}
  0
VERTEX
  5
26C
330
26B
100
AcDbEntity
  8
G-IMPT
370
    40
100
AcDbVertex
100
AcDb3dPolylineVertex
 10
109.4276934844551
 20
97.32668350807141
 30
0.0
 70
    32
  0
VERTEX
  5
26D
330
26B
100
AcDbEntity
  8
G-IMPT
370
    40
100
AcDbVertex
100
AcDb3dPolylineVertex
 10
109.4276934844551
 20
96.50536218406848
 30
0.0
 70
    32
  0
VERTEX
  5
26E
330
26B
100
AcDbEntity
  8
G-IMPT
370
    40
100
AcDbVertex
100
AcDb3dPolylineVertex
 10
110.5376641064376
 20
96.50536218406848
 30
0.0
 70
    32
  0
VERTEX
  5
26F
330
26B
100
AcDbEntity
  8
G-IMPT
370
    40
100
AcDbVertex
100
AcDb3dPolylineVertex
 10
110.5376641064376
 20
97.32668350807141
 30
0.0
 70
    32
  0
VERTEX
  5
270
330
26B
100
AcDbEntity
  8
G-IMPT
370
    40
100
AcDbVertex
100
AcDb3dPolylineVertex
 10
109.4276934844551
 20
97.32668350807141
 30
0.0
 70
    32
  0
SEQEND
  5
271
330
26B
100
AcDbEntity
  8
G-IMPT
370
    40
  0
POLYLINE
  5
272
330
228
100
AcDbEntity
  8
G-IMPT
370
    40
100
AcDb3dPolyline
 66
     1
 10
0.0
 20
0.0
 30
0.0
 70
     8
1001
REVIT
1002
{
1070
     3
1000
7518
1002
}
  0
VERTEX
  5
273
330
272
100
AcDbEntity
  8
G-IMPT
370
    40
100
AcDbVertex
100
AcDb3dPolylineVertex
 10
94.38120464619442
 20
93.23194880032978
 30
0.0
 70
    32
  0
VERTEX
  5
274
330
272
100
AcDbEntity
  8
G-IMPT
370
    40
100
AcDbVertex
100
AcDb3dPolylineVertex
 10
95.03871966513925
 20
94.23876867308901
 30
0.0
 70
    32
  0
VERTEX
  5
275
330
272
100
AcDbEntity
  8
G-IMPT
370
    40
100
AcDbVertex
100
AcDb3dPolylineVertex
 10
112.065190231106
 20
94.23876867308901
 30
0.0
 70
    32
  0
SEQEND
  5
276
330
272
100
AcDbEntity
  8
G-IMPT
370
    40
  0
LINE
  5
277
330
228
100
AcDbEntity
  8
G-IMPT
370
    40
100
AcDbLine
 10
93.68402154398564
 20
99.5205573467879
 30
0.0
 11
93.68402154398564
 21
93.43943701791292
 31
0.0
1001
REVIT
1002
{
1070
     3
1000
7518
1002
}
  0
LINE
  5
278
330
228
100
AcDbEntity
  8
G-IMPT
370
    40
100
AcDbLine
 10
112.5103410217816
 20
98.27607490093621
 30
0.0
 11
112.5103410217816
 21
94.68391946376467
 31
0.0
1001
REVIT
1002
{
1070
     3
1000
7518
1002
}
  0
INSERT
  5
279
330
228
100
AcDbEntity
  8
0
100
AcDbBlockReference
  2
MEFA Logo Dübel Rot klein_0001 - MEFA Dübel rot_dwg_Schraffur_A0V677HOK2-15011-Ansicht _1_
 10
0.0
 20
0.0
 30
0.0
  0
INSERT
  5
27A
330
228
100
AcDbEntity
  8
0
100
AcDbBlockReference
  2
MEFA Logo Dübel Rot klein_0001 - MEFA Dübel rot_dwg_Schraffur_A0V677HPK2-15012-Ansicht _1_
 10
0.0
 20
0.0
 30
0.0
  0
ENDBLK
  5
27C
330
228
100
AcDbEntity
  8
0
100
AcDbBlockEnd
  0
BLOCK
  5
27F
330
27D
100
AcDbEntity
  8
0
100
AcDbBlockBegin
  2
MEFA Logo Dübel Rot klein_0001 - MEFA Logo Dübel Rot klein_0001-13007-Ansicht _1_
 70
     0
 10
0.0
 20
0.0
 30
0.0
  3
MEFA Logo Dübel Rot klein_0001 - MEFA Logo Dübel Rot klein_0001-13007-Ansicht _1_
  1

  0
INSERT
  5
27E
330
27D
100
AcDbEntity
  8
0
100
AcDbBlockReference
  2
MEFA Logo Dübel Rot klein_0001 - MEFA Dübel rot_dwg-15010-Ansicht _1_
 10
-93.6413853379266
 20
-94.23876867309742
 30
0.7895864898480998
  0
ENDBLK
  5
280
330
27D
100
AcDbEntity
  8
0
100
AcDbBlockEnd
  0
ENDSEC
  0
SECTION
  2
ENTITIES
  0
INSERT
  5
8D
330
70
100
AcDbEntity
  8
0
 62
     8
370
    40
100
AcDbBlockReference
  2
FamilienGeomKombination_7403-Ansicht _1_
 10
0.0
 20
0.0
 30
0.0
1001
REVIT
1002
{
1070
     1
1000
7403
1002
}
1002
{
1070
     4
1000
7490
1002
}
1002
{
1070
     2
1000
-2001140
1002
}
  0
3DSOLID
  5
8E
330
70
100
AcDbEntity
  8
MEFA Bauteil
370
    40
100
AcDbModelerGeometry
290
     1
  2
{82dd4d79-f31d-0044-821e-b7661fc86895}
100
AcDb3dSolid
350
0
1001
REVIT
1002
{
1070
     1
1000
7577
1002
}
1002
{
1070
     4
1000
7490
1002
}
1002
{
1070
     2
1000
-2001140
1002
}
  0
INSERT
  5
281
330
70
100
AcDbEntity
  8
MEFA Allgemeines Mode
370
    40
100
AcDbBlockReference
  2
MEFA Logo Dübel Rot klein_0001 - MEFA Logo Dübel Rot klein_0001-13007-Ansicht _1_
 10
12.99999999999351
 20
20.0000000000084
 30
3.0
1001
REVIT
1002
{
1070
     1
1000
13012
1002
}
1002
{
1070
     5
1000
13007
1002
}
1002
{
1070
     2
1000
-2000151
1002
}
  0
LINE
  5
283
330
70
100
AcDbEntity
  8
MEFA Bauteil
370
    40
100
AcDbLine
 10
0.0
 20
22.52844989676439
 30
0.0
 11
45.00000000000018
 21
22.52844989676439
 31
0.0
1001
REVIT
1002
{
1070
     1
1000
15307
1002
}
1002
{
1070
     2
1000
-2001140
1002
}
  0
LINE
  5
284
330
70
100
AcDbEntity
  8
MEFA Bauteil
370
    40
100
AcDbLine
 10
22.47009785747502
 20
45.00000000000026
 30
0.0
 11
22.47009785747502
 21
-0.0000000000000846
 31
0.0
1001
REVIT
1002
{
1070
     1
1000
15424
1002
}
1002
{
1070
     2
1000
-2001140
1002
}
  0
ENDSEC
  0
SECTION
  2
OBJECTS
  0
DICTIONARY
  5
C
330
0
100
AcDbDictionary
281
     1
  3
ACAD_CIP_PREVIOUS_PRODUCT_INFO
350
79
  3
ACAD_COLOR
350
63
  3
ACAD_DETAILVIEWSTYLE
350
6A
  3
ACAD_GROUP
350
D
  3
ACAD_IMAGE_VARS
350
7A
  3
ACAD_LAYOUT
350
62
  3
ACAD_MATERIAL
350
10
  3
ACAD_MLEADERSTYLE
350
66
  3
ACAD_MLINESTYLE
350
5F
  3
ACAD_PLOTSETTINGS
350
61
  3
ACAD_PLOTSTYLENAME
350
E
  3
ACAD_SCALELIST
350
42
  3
ACAD_SECTIONVIEWSTYLE
350
68
  3
ACAD_TABLESTYLE
350
64
  3
ACAD_VISUALSTYLE
350
29
  3
ACDB_RECOMPOSE_DATA
350
291
  3
AcDbVariableDictionary
350
7B
  3
REVIT_DICTIONARY
350
28A
  0
XRECORD
  5
79
102
{ACAD_REACTORS
330
C
102
}
330
C
100
AcDbXrecord
280
     1
300
RVT
300
2018
300
RVT2018
  0
DICTIONARY
  5
63
102
{ACAD_REACTORS
330
C
102
}
330
C
100
AcDbDictionary
281
     1
  0
DICTIONARY
  5
6A
102
{ACAD_REACTORS
330
C
102
}
330
C
100
AcDbDictionary
281
     1
  3
Imperial24
350
6B
  0
DICTIONARY
  5
D
102
{ACAD_REACTORS
330
C
102
}
330
C
100
AcDbDictionary
281
     1
  0
RASTERVARIABLES
  5
7A
102
{ACAD_REACTORS
330
C
102
}
330
C
100
AcDbRasterVariables
 90
        0
 70
     0
 71
     1
 72
     1
  0
DICTIONARY
  5
62
102
{ACAD_REACTORS
330
C
102
}
330
C
100
AcDbDictionary
281
     1
  3
Layout1
350
6F
  3
Layout2
350
77
  3
Model
350
73
  0
DICTIONARY
  5
10
102
{ACAD_REACTORS
330
C
102
}
330
C
100
AcDbDictionary
281
     1
  3
ByBlock
350
19
  3
ByLayer
350
11
  3
Global
350
21
  3
RevitMaterialDefinition7490
350
287
  0
DICTIONARY
  5
66
102
{ACAD_REACTORS
330
C
102
}
330
C
100
AcDbDictionary
281
     1
  3
Standard
350
67
  0
DICTIONARY
  5
5F
102
{ACAD_REACTORS
330
C
102
}
330
C
100
AcDbDictionary
281
     1
  3
Standard
350
60
  0
DICTIONARY
  5
61
102
{ACAD_REACTORS
330
C
102
}
330
C
100
AcDbDictionary
281
     1
  0
ACDBDICTIONARYWDFLT
  5
E
102
{ACAD_REACTORS
330
C
102
}
330
C
100
AcDbDictionary
281
     1
  3
Normal
350
F
100
AcDbDictionaryWithDefault
340
F
  0
DICTIONARY
  5
42
102
{ACAD_REACTORS
330
C
102
}
330
C
100
AcDbDictionary
281
     1
  3
A0
350
43
  3
A1
350
44
  3
A2
350
45
  3
A3
350
46
  3
A4
350
47
  3
A5
350
48
  3
A6
350
49
  3
A7
350
4A
  3
A8
350
4B
  3
A9
350
4C
  3
B0
350
4D
  3
B1
350
4E
  3
B2
350
4F
  3
B3
350
50
  3
B4
350
51
  3
B5
350
52
  3
B6
350
53
  0
DICTIONARY
  5
68
102
{ACAD_REACTORS
330
C
102
}
330
C
100
AcDbDictionary
281
     1
  3
Imperial24
350
69
  0
DICTIONARY
  5
64
102
{ACAD_REACTORS
330
C
102
}
330
C
100
AcDbDictionary
281
     1
  3
Standard
350
65
  0
DICTIONARY
  5
29
102
{ACAD_REACTORS
330
C
102
}
330
C
100
AcDbDictionary
281
     1
  3
2dWireframe
350
2F
  3
Basic
350
2E
  3
Brighten
350
35
  3
ColorChange
350
39
  3
Conceptual
350
32
  3
Dim
350
34
  3
EdgeColorOff
350
41
  3
Facepattern
350
38
  3
Flat
350
2A
  3
FlatWithEdges
350
2B
  3
Gouraud
350
2C
  3
GouraudWithEdges
350
2D
  3
Hidden
350
31
  3
JitterOff
350
3F
  3
Linepattern
350
37
  3
OverhangOff
350
40
  3
Realistic
350
33
  3
REVIT_VISUAL_STYLE
350
285
  3
Shaded
350
3E
  3
Shaded with edges
350
3D
  3
Shades of Gray
350
3A
  3
Sketchy
350
3B
  3
Thicken
350
36
  3
Wireframe
350
30
  3
X-Ray
350
3C
  0
XRECORD
  5
291
102
{ACAD_REACTORS
330
C
102
}
330
C
100
AcDbXrecord
280
     1
 90
        1
330
65
  0
DICTIONARY
  5
7B
102
{ACAD_REACTORS
330
C
102
}
330
C
100
AcDbDictionary
281
     1
  3
CANNOSCALE
350
80
  3
CMLEADERSTYLE
350
7D
  3
CTABLESTYLE
350
7C
  3
CVIEWDETAILSTYLE
350
7E
  3
CVIEWSECTIONSTYLE
350
7F
  0
DICTIONARY
  5
28A
102
{ACAD_REACTORS
330
C
102
}
330
C
100
AcDbDictionary
281
     1
  3
DRAWING_TOOL
350
28E
  3
REVIT_CATEGORY_MAPPING
350
28C
  3
REVIT_SUB_CATEGORY_MAPPING
350
28D
  3
REVIT_TYPE_MAPPING
350
28B
  0
ACDBDETAILVIEWSTYLE
  5
6B
102
{ACAD_XDICTIONARY
360
294
102
}
102
{ACAD_REACTORS
330
6A
102
}
330
6A
100
AcDbModelDocViewStyle
 70
     0
  3
Imperial24
290
     0
100
AcDbDetailViewStyle
 70
     0
 71
     0
 90
        3
 71
     1
340
55
 62
   256
 40
0.24
340
0
 62
   256
 40
0.24
300

 40
0.36
280
     3
 71
     2
340
5D
 90
       25
 62
   256
 71
     3
340
55
 62
   256
 40
0.24
 90
        1
 40
0.75
 90
        1
300
%<\AcVar ViewType \f "%tc1">% %<\AcVar ViewDetailId>%\PSCALE %<\AcVar ViewScale \f "%sn">%
 71
     4
340
5D
 90
       25
 62
   256
340
5D
 90
       25
 62
   256
280
     0
  0
LAYOUT
  5
6F
102
{ACAD_REACTORS
330
62
102
}
330
62
100
AcDbPlotSettings
  1

  2

  4

  6

 40
0.0
 41
0.0
 42
0.0
 43
0.0
 44
0.0
 45
0.0
 46
0.0
 47
0.0
 48
0.0
 49
0.0
140
0.0
141
0.0
142
1.0
143
1.0
 70
   688
 72
     0
 73
     0
 74
     5
  7

 75
    16
147
1.0
 76
     0
 77
     2
 78
   300
148
0.0
149
0.0
100
AcDbLayout
  1
Layout1
 70
     1
 71
     1
 10
0.0
 20
0.0
 11
12.0
 21
9.0
 12
0.0
 22
0.0
 32
0.0
 14
0.0
 24
0.0
 34
0.0
 15
0.0
 25
0.0
 35
0.0
146
0.0
 13
0.0
 23
0.0
 33
0.0
 16
1.0
 26
0.0
 36
0.0
 17
0.0
 27
1.0
 37
0.0
 76
     0
330
6C
  0
LAYOUT
  5
77
102
{ACAD_REACTORS
330
62
102
}
330
62
100
AcDbPlotSettings
  1

  2

  4

  6

 40
0.0
 41
0.0
 42
0.0
 43
0.0
 44
0.0
 45
0.0
 46
0.0
 47
0.0
 48
0.0
 49
0.0
140
0.0
141
0.0
142
1.0
143
1.0
 70
   688
 72
     0
 73
     0
 74
     5
  7

 75
    16
147
1.0
 76
     0
 77
     2
 78
   300
148
0.0
149
0.0
100
AcDbLayout
  1
Layout2
 70
     1
 71
     2
 10
0.0
 20
0.0
 11
12.0
 21
9.0
 12
0.0
 22
0.0
 32
0.0
 14
0.0
 24
0.0
 34
0.0
 15
0.0
 25
0.0
 35
0.0
146
0.0
 13
0.0
 23
0.0
 33
0.0
 16
1.0
 26
0.0
 36
0.0
 17
0.0
 27
1.0
 37
0.0
 76
     0
330
74
  0
LAYOUT
  5
73
102
{ACAD_REACTORS
330
62
102
}
330
62
100
AcDbPlotSettings
  1

  2

  4

  6

 40
0.0
 41
0.0
 42
0.0
 43
0.0
 44
0.0
 45
0.0
 46
0.0
 47
0.0
 48
0.0
 49
0.0
140
0.0
141
0.0
142
1.0
143
1.0
 70
  1712
 72
     0
 73
     0
 74
     0
  7

 75
     0
147
1.0
 76
     0
 77
     2
 78
   300
148
0.0
149
0.0
100
AcDbLayout
  1
Model
 70
     1
 71
     0
 10
0.0
 20
0.0
 11
12.0
 21
9.0
 12
0.0
 22
0.0
 32
0.0
 14
0.0
 24
0.0
 34
0.0
 15
0.0
 25
0.0
 35
0.0
146
0.0
 13
0.0
 23
0.0
 33
0.0
 16
1.0
 26
0.0
 36
0.0
 17
0.0
 27
1.0
 37
0.0
 76
     0
330
70
  0
MATERIAL
  5
19
102
{ACAD_XDICTIONARY
360
1A
102
}
102
{ACAD_REACTORS
330
10
102
}
330
10
100
AcDbMaterial
  1
ByBlock
 72
     0
 43
0.0208333333333333
 43
0.0
 43
0.0
 43
0.0
 43
0.0
 43
0.0208333333333333
 43
0.0
 43
0.0
 43
0.0
 43
0.0
 43
1.0
 43
0.0
 43
0.0
 43
0.0
 43
0.0
 43
1.0
 77
     0
 47
0.0208333333333333
 47
0.0
 47
0.0
 47
0.0
 47
0.0
 47
0.0208333333333333
 47
0.0
 47
0.0
 47
0.0
 47
0.0
 47
1.0
 47
0.0
 47
0.0
 47
0.0
 47
0.0
 47
1.0
171
     0
 49
0.0208333333333333
 49
0.0
 49
0.0
 49
0.0
 49
0.0
 49
0.0208333333333333
 49
0.0
 49
0.0
 49
0.0
 49
0.0
 49
1.0
 49
0.0
 49
0.0
 49
0.0
 49
0.0
 49
1.0
175
     0
142
0.0208333333333333
142
0.0
142
0.0
142
0.0
142
0.0
142
0.0208333333333333
142
0.0
142
0.0
142
0.0
142
0.0
142
1.0
142
0.0
142
0.0
142
0.0
142
0.0
142
1.0
179
     0
144
0.0208333333333333
144
0.0
144
0.0
144
0.0
144
0.0
144
0.0208333333333333
144
0.0
144
0.0
144
0.0
144
0.0
144
1.0
144
0.0
144
0.0
144
0.0
144
0.0
144
1.0
147
0.0208333333333333
147
0.0
147
0.0
147
0.0
147
0.0
147
0.0208333333333333
147
0.0
147
0.0
147
0.0
147
0.0
147
1.0
147
0.0
147
0.0
147
0.0
147
0.0
147
1.0
  0
MATERIAL
  5
11
102
{ACAD_XDICTIONARY
360
12
102
}
102
{ACAD_REACTORS
330
10
102
}
330
10
100
AcDbMaterial
  1
ByLayer
 72
     0
 43
0.0208333333333333
 43
0.0
 43
0.0
 43
0.0
 43
0.0
 43
0.0208333333333333
 43
0.0
 43
0.0
 43
0.0
 43
0.0
 43
1.0
 43
0.0
 43
0.0
 43
0.0
 43
0.0
 43
1.0
 77
     0
 47
0.0208333333333333
 47
0.0
 47
0.0
 47
0.0
 47
0.0
 47
0.0208333333333333
 47
0.0
 47
0.0
 47
0.0
 47
0.0
 47
1.0
 47
0.0
 47
0.0
 47
0.0
 47
0.0
 47
1.0
171
     0
 49
0.0208333333333333
 49
0.0
 49
0.0
 49
0.0
 49
0.0
 49
0.0208333333333333
 49
0.0
 49
0.0
 49
0.0
 49
0.0
 49
1.0
 49
0.0
 49
0.0
 49
0.0
 49
0.0
 49
1.0
175
     0
142
0.0208333333333333
142
0.0
142
0.0
142
0.0
142
0.0
142
0.0208333333333333
142
0.0
142
0.0
142
0.0
142
0.0
142
1.0
142
0.0
142
0.0
142
0.0
142
0.0
142
1.0
179
     0
144
0.0208333333333333
144
0.0
144
0.0
144
0.0
144
0.0
144
0.0208333333333333
144
0.0
144
0.0
144
0.0
144
0.0
144
1.0
144
0.0
144
0.0
144
0.0
144
0.0
144
1.0
147
0.0208333333333333
147
0.0
147
0.0
147
0.0
147
0.0
147
0.0208333333333333
147
0.0
147
0.0
147
0.0
147
0.0
147
1.0
147
0.0
147
0.0
147
0.0
147
0.0
147
1.0
  0
MATERIAL
  5
21
102
{ACAD_XDICTIONARY
360
22
102
}
102
{ACAD_REACTORS
330
10
102
}
330
10
100
AcDbMaterial
  1
Global
 72
     0
 43
0.0208333333333333
 43
0.0
 43
0.0
 43
0.0
 43
0.0
 43
0.0208333333333333
 43
0.0
 43
0.0
 43
0.0
 43
0.0
 43
1.0
 43
0.0
 43
0.0
 43
0.0
 43
0.0
 43
1.0
 77
     0
 47
0.0208333333333333
 47
0.0
 47
0.0
 47
0.0
 47
0.0
 47
0.0208333333333333
 47
0.0
 47
0.0
 47
0.0
 47
0.0
 47
1.0
 47
0.0
 47
0.0
 47
0.0
 47
0.0
 47
1.0
171
     0
 49
0.0208333333333333
 49
0.0
 49
0.0
 49
0.0
 49
0.0
 49
0.0208333333333333
 49
0.0
 49
0.0
 49
0.0
 49
0.0
 49
1.0
 49
0.0
 49
0.0
 49
0.0
 49
0.0
 49
1.0
175
     0
142
0.0208333333333333
142
0.0
142
0.0
142
0.0
142
0.0
142
0.0208333333333333
142
0.0
142
0.0
142
0.0
142
0.0
142
1.0
142
0.0
142
0.0
142
0.0
142
0.0
142
1.0
179
     0
144
0.0208333333333333
144
0.0
144
0.0
144
0.0
144
0.0
144
0.0208333333333333
144
0.0
144
0.0
144
0.0
144
0.0
144
1.0
144
0.0
144
0.0
144
0.0
144
0.0
144
1.0
147
0.0208333333333333
147
0.0
147
0.0
147
0.0
147
0.0
147
0.0208333333333333
147
0.0
147
0.0
147
0.0
147
0.0
147
1.0
147
0.0
147
0.0
147
0.0
147
0.0
147
1.0
  0
MATERIAL
  5
287
102
{ACAD_XDICTIONARY
360
288
102
}
102
{ACAD_REACTORS
330
10
102
}
330
10
100
AcDbMaterial
  1
RevitMaterialDefinition7490
 70
     1
 90
-1032292232
 71
     1
 91
-1032292232
 73
     1
 76
     1
 45
0.5
 77
     0
175
     0
145
0.0
  0
MLEADERSTYLE
  5
67
102
{ACAD_REACTORS
330
66
102
}
330
66
100
AcDbMLeaderStyle
179
     2
170
     2
171
     1
172
     0
 90
        2
 40
0.0
 41
0.0
173
     1
 91
-1056964608
340
5B
 92
       -2
290
     1
 42
0.09
291
     1
 43
0.36
  3
Standard
 44
0.18
300

342
55
174
     1
178
     6
175
     1
176
     0
 93
-1056964608
 45
0.18
292
     0
297
     0
 46
0.18
 94
-1056964608
 47
1.0
 49
1.0
140
1.0
293
     1
141
0.0
294
     1
177
     0
142
1.0
295
     0
296
     0
143
0.125
271
     0
272
     9
273
     9
298
     1
  0
MLINESTYLE
  5
60
102
{ACAD_REACTORS
330
5F
102
}
330
5F
100
AcDbMlineStyle
  2
STANDARD
 70
     0
  3

 62
   256
 51
90.0
 52
90.0
 71
     2
 49
0.5
 62
   256
  6
BYLAYER
 49
-0.5
 62
   256
  6
BYLAYER
  0
ACDBPLACEHOLDER
  5
F
102
{ACAD_REACTORS
330
E
102
}
330
E
  0
SCALE
  5
43
102
{ACAD_REACTORS
330
42
102
}
330
42
100
AcDbScale
 70
     0
300
1:1
140
1.0
141
1.0
290
     1
  0
SCALE
  5
44
102
{ACAD_REACTORS
330
42
102
}
330
42
100
AcDbScale
 70
     0
300
1/128" = 1'-0"
140
0.0078125
141
12.0
290
     0
  0
SCALE
  5
45
102
{ACAD_REACTORS
330
42
102
}
330
42
100
AcDbScale
 70
     0
300
1/64" = 1'-0"
140
0.015625
141
12.0
290
     0
  0
SCALE
  5
46
102
{ACAD_REACTORS
330
42
102
}
330
42
100
AcDbScale
 70
     0
300
1/32" = 1'-0"
140
0.03125
141
12.0
290
     0
  0
SCALE
  5
47
102
{ACAD_REACTORS
330
42
102
}
330
42
100
AcDbScale
 70
     0
300
1/16" = 1'-0"
140
0.0625
141
12.0
290
     0
  0
SCALE
  5
48
102
{ACAD_REACTORS
330
42
102
}
330
42
100
AcDbScale
 70
     0
300
3/32" = 1'-0"
140
0.09375
141
12.0
290
     0
  0
SCALE
  5
49
102
{ACAD_REACTORS
330
42
102
}
330
42
100
AcDbScale
 70
     0
300
1/8" = 1'-0"
140
0.125
141
12.0
290
     0
  0
SCALE
  5
4A
102
{ACAD_REACTORS
330
42
102
}
330
42
100
AcDbScale
 70
     0
300
3/16" = 1'-0"
140
0.1875
141
12.0
290
     0
  0
SCALE
  5
4B
102
{ACAD_REACTORS
330
42
102
}
330
42
100
AcDbScale
 70
     0
300
1/4" = 1'-0"
140
0.25
141
12.0
290
     0
  0
SCALE
  5
4C
102
{ACAD_REACTORS
330
42
102
}
330
42
100
AcDbScale
 70
     0
300
3/8" = 1'-0"
140
0.375
141
12.0
290
     0
  0
SCALE
  5
4D
102
{ACAD_REACTORS
330
42
102
}
330
42
100
AcDbScale
 70
     0
300
1/2" = 1'-0"
140
0.5
141
12.0
290
     0
  0
SCALE
  5
4E
102
{ACAD_REACTORS
330
42
102
}
330
42
100
AcDbScale
 70
     0
300
3/4" = 1'-0"
140
0.75
141
12.0
290
     0
  0
SCALE
  5
4F
102
{ACAD_REACTORS
330
42
102
}
330
42
100
AcDbScale
 70
     0
300
1" = 1'-0"
140
1.0
141
12.0
290
     0
  0
SCALE
  5
50
102
{ACAD_REACTORS
330
42
102
}
330
42
100
AcDbScale
 70
     0
300
1-1/2" = 1'-0"
140
1.5
141
12.0
290
     0
  0
SCALE
  5
51
102
{ACAD_REACTORS
330
42
102
}
330
42
100
AcDbScale
 70
     0
300
3" = 1'-0"
140
3.0
141
12.0
290
     0
  0
SCALE
  5
52
102
{ACAD_REACTORS
330
42
102
}
330
42
100
AcDbScale
 70
     0
300
6" = 1'-0"
140
6.0
141
12.0
290
     0
  0
SCALE
  5
53
102
{ACAD_REACTORS
330
42
102
}
330
42
100
AcDbScale
 70
     0
300
1'-0" = 1'-0"
140
12.0
141
12.0
290
     0
  0
ACDBSECTIONVIEWSTYLE
  5
69
102
{ACAD_XDICTIONARY
360
292
102
}
102
{ACAD_REACTORS
330
68
102
}
330
68
100
AcDbModelDocViewStyle
 70
     0
  3
Imperial24
290
     0
100
AcDbSectionViewStyle
 70
     0
 71
     0
 90
       78
 71
     1
340
55
 62
   256
 40
0.24
340
0
340
0
 62
   256
 40
0.24
300
I, O, Q, S, X, Z
 40
0.48
 90
        3
 40
0.18
 90
        1
 71
     2
340
5D
 90
       25
 62
   256
340
5D
 90
       50
 62
   256
 40
0.24
 40
0.0
 40
0.24
 71
     3
340
55
 62
   256
 40
0.24
 90
        1
 40
0.75
 90
        1
300
%<\AcVar ViewType \f "%tc1">% %<\AcVar ViewSectionStartId>%-%<\AcVar ViewSectionEndId>%\PSCALE %<\AcVar ViewScale \f "%sn">%
 71
     4
 62
   256
 62
   257
300
ANSI31
 40
1.0
 90
        0
290
     0
290
     0
 90
        6
 40
0.0
 40
1.570796326794896
 40
0.2617993877991494
 40
1.308996938995747
 40
-0.2617993877991494
 40
1.832595714594046
  0
TABLESTYLE
  5
65
102
{ACAD_XDICTIONARY
360
28F
102
}
102
{ACAD_REACTORS
330
64
102
}
330
64
100
AcDbTableStyle
280
     0
  3
Standard
 70
     0
 71
     0
 40
0.06
 41
0.06
280
     0
281
     0
  7
Standard
140
0.18
170
     2
 62
     0
 63
     7
283
     0
 90
      512
 91
        0
  1

274
    -2
284
     1
 64
     0
275
    -2
285
     1
 65
     0
276
    -2
286
     1
 66
     0
277
    -2
287
     1
 67
     0
278
    -2
288
     1
 68
     0
279
    -2
289
     1
 69
     0
  7
Standard
140
0.25
170
     5
 62
     0
 63
     7
283
     0
 90
      512
 91
        0
  1

274
    -2
284
     1
 64
     0
275
    -2
285
     1
 65
     0
276
    -2
286
     1
 66
     0
277
    -2
287
     1
 67
     0
278
    -2
288
     1
 68
     0
279
    -2
289
     1
 69
     0
  7
Standard
140
0.18
170
     5
 62
     0
 63
     7
283
     0
 90
      512
 91
        0
  1

274
    -2
284
     1
 64
     0
275
    -2
285
     1
 65
     0
276
    -2
286
     1
 66
     0
277
    -2
287
     1
 67
     0
278
    -2
288
     1
 68
     0
279
    -2
289
     1
 69
     0
  0
VISUALSTYLE
  5
2F
102
{ACAD_REACTORS
330
29
102
}
330
29
100
AcDbVisualStyle
  2
2dWireframe
 70
     4
177
     3
291
     0
 70
    58
 90
        0
176
     1
 90
        2
176
     1
 90
        0
176
     1
 90
        0
176
     1
 40
0.6
176
     1
 40
30.0
176
     1
 62
     7
420
 16777215
176
     1
 90
        1
176
     1
 90
        4
176
     1
 62
     7
176
     1
 62
   257
176
     1
 90
        1
176
     1
 90
        1
176
     1
 40
1.0
176
     1
 90
        0
176
     1
 62
   257
176
     1
 40
1.0
176
     1
 90
        1
176
     1
 90
        6
176
     1
 90
        2
176
     1
 62
     7
176
     1
 90
        5
176
     1
 90
        0
176
     1
 90
        0
176
     1
290
     0
176
     1
 90
        1
176
     1
 40
0.0
176
     1
 90
        0
176
     1
290
     1
176
     1
290
     1
176
     1
290
     0
176
     1
290
     0
176
     1
290
     0
176
     1
290
     0
176
     1
290
     0
176
     1
290
     0
176
     1
290
     0
176
     1
 90
       50
176
     1
 40
0.0
176
     1
 40
1.0
176
     1
 90
        0
176
     1
 62
    18
420
        0
176
     1
 90
       50
176
     1
 90
        3
176
     1
 62
     5
420
      255
176
     1
290
     0
176
     1
 90
       50
176
     1
 90
       50
176
     1
 90
       50
176
     1
290
     0
176
     1
 90
       50
176
     1
 62
   256
176
     0
 40
1.0
176
     0
 90
        2
176
     1
  1
strokes_ogs.tif
176
     1
290
     0
176
     1
 40
1.0
176
     1
 40
1.0
176
     1
1001
ACAD
1000
AcDbSavedByObjectVersion
1070
     0
  0
VISUALSTYLE
  5
2E
102
{ACAD_REACTORS
330
29
102
}
330
29
100
AcDbVisualStyle
  2
Basic
 70
     7
177
     3
291
     1
 70
    58
 90
        1
176
     1
 90
        0
176
     1
 90
        1
176
     1
 90
        0
176
     1
 40
0.6
176
     1
 40
30.0
176
     1
 62
     7
420
 16777215
176
     1
 90
        0
176
     1
 90
        4
176
     1
 62
     7
176
     1
 62
   257
176
     1
 90
        1
176
     1
 90
        1
176
     1
 40
1.0
176
     1
 90
        8
176
     1
 62
     7
176
     1
 40
1.0
176
     1
 90
        1
176
     1
 90
        6
176
     1
 90
        2
176
     1
 62
     7
176
     1
 90
        5
176
     1
 90
        0
176
     1
 90
        0
176
     1
290
     0
176
     1
 90
        1
176
     1
 40
0.0
176
     1
 90
        0
176
     1
290
     0
176
     1
290
     1
176
     1
290
     1
176
     1
290
     0
176
     1
290
     0
176
     1
290
     0
176
     1
290
     0
176
     1
290
     0
176
     1
290
     0
176
     1
 90
       50
176
     1
 40
0.0
176
     1
 40
1.0
176
     1
 90
        0
176
     1
 62
    18
420
        0
176
     1
 90
       50
176
     1
 90
        3
176
     1
 62
     5
420
      255
176
     1
290
     0
176
     1
 90
       50
176
     1
 90
       50
176
     1
 90
       50
176
     1
290
     0
176
     1
 90
       50
176
     1
 62
   256
176
     0
 40
1.0
176
     0
 90
        2
176
     1
  1
strokes_ogs.tif
176
     1
290
     0
176
     1
 40
1.0
176
     1
 40
1.0
176
     1
1001
ACAD
1000
AcDbSavedByObjectVersion
1070
     0
  0
VISUALSTYLE
  5
35
102
{ACAD_REACTORS
330
29
102
}
330
29
100
AcDbVisualStyle
  2
Brighten
 70
    12
177
     3
291
     1
 70
    58
 90
        2
176
     1
 90
        2
176
     1
 90
        0
176
     1
 90
        0
176
     1
 40
0.6
176
     1
 40
30.0
176
     1
 62
     7
420
 16777215
176
     1
 90
        1
176
     1
 90
        4
176
     1
 62
     7
176
     1
 62
   257
176
     1
 90
        1
176
     1
 90
        1
176
     1
 40
1.0
176
     1
 90
        8
176
     1
 62
     7
176
     1
 40
1.0
176
     1
 90
        1
176
     1
 90
        6
176
     1
 90
        2
176
     1
 62
     7
176
     1
 90
        5
176
     1
 90
        0
176
     1
 90
        0
176
     1
290
     0
176
     1
 90
        1
176
     1
 40
50.0
176
     1
 90
        0
176
     1
290
     0
176
     1
290
     1
176
     1
290
     1
176
     1
290
     0
176
     1
290
     0
176
     1
290
     0
176
     1
290
     0
176
     1
290
     0
176
     1
290
     0
176
     1
 90
       50
176
     1
 40
0.0
176
     1
 40
1.0
176
     1
 90
        0
176
     1
 62
    18
420
        0
176
     1
 90
       50
176
     1
 90
        3
176
     1
 62
     5
420
      255
176
     1
290
     0
176
     1
 90
       50
176
     1
 90
       50
176
     1
 90
       50
176
     1
290
     0
176
     1
 90
       50
176
     1
 62
   256
176
     0
 40
1.0
176
     0
 90
        2
176
     1
  1
strokes_ogs.tif
176
     1
290
     0
176
     1
 40
1.0
176
     1
 40
1.0
176
     1
1001
ACAD
1000
AcDbSavedByObjectVersion
1070
     0
  0
VISUALSTYLE
  5
39
102
{ACAD_REACTORS
330
29
102
}
330
29
100
AcDbVisualStyle
  2
ColorChange
 70
    16
177
     3
291
     1
 70
    58
 90
        2
176
     1
 90
        2
176
     1
 90
        3
176
     1
 90
        0
176
     1
 40
0.6
176
     1
 40
30.0
176
     1
 62
     8
420
  8421504
176
     1
 90
        1
176
     1
 90
        4
176
     1
 62
     7
176
     1
 62
   257
176
     1
 90
        1
176
     1
 90
        1
176
     1
 40
1.0
176
     1
 90
        8
176
     1
 62
     8
420
  8421504
176
     1
 40
1.0
176
     1
 90
        1
176
     1
 90
        6
176
     1
 90
        2
176
     1
 62
     7
176
     1
 90
        5
176
     1
 90
        0
176
     1
 90
        0
176
     1
290
     0
176
     1
 90
        1
176
     1
 40
0.0
176
     1
 90
        0
176
     1
290
     0
176
     1
290
     1
176
     1
290
     1
176
     1
290
     0
176
     1
290
     0
176
     1
290
     0
176
     1
290
     0
176
     1
290
     0
176
     1
290
     0
176
     1
 90
       50
176
     1
 40
0.0
176
     1
 40
1.0
176
     1
 90
        0
176
     1
 62
    18
420
        0
176
     1
 90
       50
176
     1
 90
        3
176
     1
 62
     5
420
      255
176
     1
290
     0
176
     1
 90
       50
176
     1
 90
       50
176
     1
 90
       50
176
     1
290
     0
176
     1
 90
       50
176
     1
 62
   256
176
     0
 40
1.0
176
     0
 90
        2
176
     1
  1
strokes_ogs.tif
176
     1
290
     0
176
     1
 40
1.0
176
     1
 40
1.0
176
     1
1001
ACAD
1000
AcDbSavedByObjectVersion
1070
     0
  0
VISUALSTYLE
  5
32
102
{ACAD_REACTORS
330
29
102
}
330
29
100
AcDbVisualStyle
  2
Conceptual
 70
     9
177
     3
291
     0
 70
    58
 90
        3
176
     1
 90
        2
176
     1
 90
        0
176
     1
 90
        0
176
     1
 40
0.6
176
     1
 40
30.0
176
     1
 62
     7
420
 16777215
176
     1
 90
        2
176
     1
 90
        2
176
     1
 62
     7
176
     1
 62
   257
176
     1
 90
        1
176
     1
 90
        1
176
     1
 40
179.0
176
     1
 90
        8
176
     1
 62
     7
176
     1
 40
1.0
176
     1
 90
        1
176
     1
 90
        6
176
     1
 90
        2
176
     1
 62
     7
176
     1
 90
        3
176
     1
 90
        0
176
     1
 90
        0
176
     1
290
     0
176
     1
 90
        1
176
     1
 40
0.0
176
     1
 90
        0
176
     1
290
     0
176
     1
290
     1
176
     1
290
     1
176
     1
290
     0
176
     1
290
     0
176
     1
290
     0
176
     1
290
     0
176
     1
290
     0
176
     1
290
     0
176
     1
 90
       50
176
     1
 40
0.0
176
     1
 40
1.0
176
     1
 90
        0
176
     1
 62
    18
420
        0
176
     1
 90
       50
176
     1
 90
        3
176
     1
 62
     5
420
      255
176
     1
290
     0
176
     1
 90
       50
176
     1
 90
       50
176
     1
 90
       50
176
     1
290
     0
176
     1
 90
       50
176
     1
 62
   256
176
     0
 40
1.0
176
     0
 90
        2
176
     1
  1
strokes_ogs.tif
176
     1
290
     0
176
     1
 40
1.0
176
     1
 40
1.0
176
     1
1001
ACAD
1000
AcDbSavedByObjectVersion
1070
     0
  0
VISUALSTYLE
  5
34
102
{ACAD_REACTORS
330
29
102
}
330
29
100
AcDbVisualStyle
  2
Dim
 70
    11
177
     3
291
     1
 70
    58
 90
        2
176
     1
 90
        2
176
     1
 90
        0
176
     1
 90
        0
176
     1
 40
0.6
176
     1
 40
30.0
176
     1
 62
     7
420
 16777215
176
     1
 90
        1
176
     1
 90
        4
176
     1
 62
     7
176
     1
 62
   257
176
     1
 90
        1
176
     1
 90
        1
176
     1
 40
1.0
176
     1
 90
        8
176
     1
 62
     7
176
     1
 40
1.0
176
     1
 90
        1
176
     1
 90
        6
176
     1
 90
        2
176
     1
 62
     7
176
     1
 90
        5
176
     1
 90
        0
176
     1
 90
        0
176
     1
290
     0
176
     1
 90
        1
176
     1
 40
-50.0
176
     1
 90
        0
176
     1
290
     0
176
     1
290
     1
176
     1
290
     1
176
     1
290
     0
176
     1
290
     0
176
     1
290
     0
176
     1
290
     0
176
     1
290
     0
176
     1
290
     0
176
     1
 90
       50
176
     1
 40
0.0
176
     1
 40
1.0
176
     1
 90
        0
176
     1
 62
    18
420
        0
176
     1
 90
       50
176
     1
 90
        3
176
     1
 62
     5
420
      255
176
     1
290
     0
176
     1
 90
       50
176
     1
 90
       50
176
     1
 90
       50
176
     1
290
     0
176
     1
 90
       50
176
     1
 62
   256
176
     0
 40
1.0
176
     0
 90
        2
176
     1
  1
strokes_ogs.tif
176
     1
290
     0
176
     1
 40
1.0
176
     1
 40
1.0
176
     1
1001
ACAD
1000
AcDbSavedByObjectVersion
1070
     0
  0
VISUALSTYLE
  5
41
102
{ACAD_REACTORS
330
29
102
}
330
29
100
AcDbVisualStyle
  2
EdgeColorOff
 70
    22
177
     3
291
     1
 70
    58
 90
        2
176
     0
 90
        2
176
     0
 90
        0
176
     0
 90
        0
176
     0
 40
0.6
176
     0
 40
30.0
176
     0
 62
     7
420
 16777215
176
     0
 90
        1
176
     0
 90
        4
176
     0
 62
     7
176
     0
 62
   257
176
     0
 90
        1
176
     0
 90
        1
176
     0
 40
1.0
176
     0
 90
        8
176
     2
 62
     7
176
     0
 40
1.0
176
     0
 90
        1
176
     0
 90
        6
176
     0
 90
        2
176
     0
 62
     7
176
     0
 90
        5
176
     0
 90
        0
176
     0
 90
        0
176
     0
290
     0
176
     0
 90
        1
176
     0
 40
0.0
176
     0
 90
        0
176
     0
290
     0
176
     0
290
     1
176
     0
290
     1
176
     0
290
     0
176
     0
290
     0
176
     0
290
     0
176
     0
290
     0
176
     0
290
     0
176
     0
290
     0
176
     0
 90
       50
176
     0
 40
0.0
176
     0
 40
1.0
176
     0
 90
        0
176
     0
 62
    18
420
        0
176
     0
 90
       50
176
     0
 90
        3
176
     0
 62
     5
420
      255
176
     0
290
     0
176
     0
 90
       50
176
     0
 90
       50
176
     0
 90
       50
176
     0
290
     0
176
     0
 90
       50
176
     0
 62
   256
176
     0
 40
1.0
176
     0
 90
        2
176
     0
  1
strokes_ogs.tif
176
     0
290
     0
176
     0
 40
1.0
176
     0
 40
1.0
176
     0
1001
ACAD
1000
AcDbSavedByObjectVersion
1070
     0
  0
VISUALSTYLE
  5
38
102
{ACAD_REACTORS
330
29
102
}
330
29
100
AcDbVisualStyle
  2
Facepattern
 70
    15
177
     3
291
     1
 70
    58
 90
        2
176
     1
 90
        2
176
     1
 90
        0
176
     1
 90
        0
176
     1
 40
0.6
176
     1
 40
30.0
176
     1
 62
     7
420
 16777215
176
     1
 90
        1
176
     1
 90
        4
176
     1
 62
     7
176
     1
 62
   257
176
     1
 90
        1
176
     1
 90
        1
176
     1
 40
1.0
176
     1
 90
        8
176
     1
 62
     7
176
     1
 40
1.0
176
     1
 90
        1
176
     1
 90
        6
176
     1
 90
        2
176
     1
 62
     7
176
     1
 90
        5
176
     1
 90
        0
176
     1
 90
        0
176
     1
290
     0
176
     1
 90
        1
176
     1
 40
0.0
176
     1
 90
        0
176
     1
290
     0
176
     1
290
     1
176
     1
290
     1
176
     1
290
     0
176
     1
290
     0
176
     1
290
     0
176
     1
290
     0
176
     1
290
     0
176
     1
290
     0
176
     1
 90
       50
176
     1
 40
0.0
176
     1
 40
1.0
176
     1
 90
        0
176
     1
 62
    18
420
        0
176
     1
 90
       50
176
     1
 90
        3
176
     1
 62
     5
420
      255
176
     1
290
     0
176
     1
 90
       50
176
     1
 90
       50
176
     1
 90
       50
176
     1
290
     0
176
     1
 90
       50
176
     1
 62
   256
176
     0
 40
1.0
176
     0
 90
        2
176
     1
  1
strokes_ogs.tif
176
     1
290
     0
176
     1
 40
1.0
176
     1
 40
1.0
176
     1
1001
ACAD
1000
AcDbSavedByObjectVersion
1070
     0
  0
VISUALSTYLE
  5
2A
102
{ACAD_REACTORS
330
29
102
}
330
29
100
AcDbVisualStyle
  2
Flat
 70
     0
177
     3
291
     1
 70
    58
 90
        2
176
     1
 90
        1
176
     1
 90
        1
176
     1
 90
        2
176
     1
 40
0.6
176
     1
 40
30.0
176
     1
 62
     7
420
 16777215
176
     1
 90
        0
176
     1
 90
        0
176
     1
 62
     7
176
     1
 62
   257
176
     1
 90
        1
176
     1
 90
        1
176
     1
 40
1.0
176
     1
 90
        8
176
     1
 62
     7
176
     1
 40
1.0
176
     1
 90
        1
176
     1
 90
        6
176
     1
 90
        2
176
     1
 62
     7
176
     1
 90
        5
176
     1
 90
        0
176
     1
 90
        0
176
     1
290
     0
176
     1
 90
       13
176
     1
 40
0.0
176
     1
 90
        0
176
     1
290
     0
176
     1
290
     1
176
     1
290
     1
176
     1
290
     0
176
     1
290
     0
176
     1
290
     0
176
     1
290
     0
176
     1
290
     0
176
     1
290
     0
176
     1
 90
       50
176
     1
 40
0.0
176
     1
 40
1.0
176
     1
 90
        0
176
     1
 62
    18
420
        0
176
     1
 90
       50
176
     1
 90
        3
176
     1
 62
     5
420
      255
176
     1
290
     0
176
     1
 90
       50
176
     1
 90
       50
176
     1
 90
       50
176
     1
290
     0
176
     1
 90
       50
176
     1
 62
   256
176
     0
 40
1.0
176
     0
 90
        2
176
     1
  1
strokes_ogs.tif
176
     1
290
     0
176
     1
 40
1.0
176
     1
 40
1.0
176
     1
1001
ACAD
1000
AcDbSavedByObjectVersion
1070
     0
  0
VISUALSTYLE
  5
2B
102
{ACAD_REACTORS
330
29
102
}
330
29
100
AcDbVisualStyle
  2
FlatWithEdges
 70
     1
177
     3
291
     1
 70
    58
 90
        2
176
     1
 90
        1
176
     1
 90
        1
176
     1
 90
        2
176
     1
 40
0.6
176
     1
 40
30.0
176
     1
 62
     7
420
 16777215
176
     1
 90
        1
176
     1
 90
        0
176
     1
 62
     7
176
     1
 62
   257
176
     1
 90
        1
176
     1
 90
        1
176
     1
 40
1.0
176
     1
 90
        0
176
     1
 62
   257
176
     1
 40
1.0
176
     1
 90
        1
176
     1
 90
        6
176
     1
 90
        2
176
     1
 62
     7
176
     1
 90
        5
176
     1
 90
        0
176
     1
 90
        0
176
     1
290
     0
176
     1
 90
       13
176
     1
 40
0.0
176
     1
 90
        0
176
     1
290
     0
176
     1
290
     1
176
     1
290
     1
176
     1
290
     0
176
     1
290
     0
176
     1
290
     0
176
     1
290
     0
176
     1
290
     0
176
     1
290
     0
176
     1
 90
       50
176
     1
 40
0.0
176
     1
 40
1.0
176
     1
 90
        0
176
     1
 62
    18
420
        0
176
     1
 90
       50
176
     1
 90
        3
176
     1
 62
     5
420
      255
176
     1
290
     0
176
     1
 90
       50
176
     1
 90
       50
176
     1
 90
       50
176
     1
290
     0
176
     1
 90
       50
176
     1
 62
   256
176
     0
 40
1.0
176
     0
 90
        2
176
     1
  1
strokes_ogs.tif
176
     1
290
     0
176
     1
 40
1.0
176
     1
 40
1.0
176
     1
1001
ACAD
1000
AcDbSavedByObjectVersion
1070
     0
  0
VISUALSTYLE
  5
2C
102
{ACAD_REACTORS
330
29
102
}
330
29
100
AcDbVisualStyle
  2
Gouraud
 70
     2
177
     3
291
     1
 70
    58
 90
        2
176
     1
 90
        2
176
     1
 90
        1
176
     1
 90
        2
176
     1
 40
0.6
176
     1
 40
30.0
176
     1
 62
     7
420
 16777215
176
     1
 90
        0
176
     1
 90
        0
176
     1
 62
     7
176
     1
 62
   257
176
     1
 90
        1
176
     1
 90
        1
176
     1
 40
1.0
176
     1
 90
        0
176
     1
 62
     7
176
     1
 40
1.0
176
     1
 90
        1
176
     1
 90
        6
176
     1
 90
        2
176
     1
 62
     7
176
     1
 90
        5
176
     1
 90
        0
176
     1
 90
        0
176
     1
290
     0
176
     1
 90
       13
176
     1
 40
0.0
176
     1
 90
        0
176
     1
290
     0
176
     1
290
     1
176
     1
290
     1
176
     1
290
     0
176
     1
290
     0
176
     1
290
     0
176
     1
290
     0
176
     1
290
     0
176
     1
290
     0
176
     1
 90
       50
176
     1
 40
0.0
176
     1
 40
1.0
176
     1
 90
        0
176
     1
 62
    18
420
        0
176
     1
 90
       50
176
     1
 90
        3
176
     1
 62
     5
420
      255
176
     1
290
     0
176
     1
 90
       50
176
     1
 90
       50
176
     1
 90
       50
176
     1
290
     0
176
     1
 90
       50
176
     1
 62
   256
176
     0
 40
1.0
176
     0
 90
        2
176
     1
  1
strokes_ogs.tif
176
     1
290
     0
176
     1
 40
1.0
176
     1
 40
1.0
176
     1
1001
ACAD
1000
AcDbSavedByObjectVersion
1070
     0
  0
VISUALSTYLE
  5
2D
102
{ACAD_REACTORS
330
29
102
}
330
29
100
AcDbVisualStyle
  2
GouraudWithEdges
 70
     3
177
     3
291
     1
 70
    58
 90
        2
176
     1
 90
        2
176
     1
 90
        1
176
     1
 90
        2
176
     1
 40
0.6
176
     1
 40
30.0
176
     1
 62
     7
420
 16777215
176
     1
 90
        1
176
     1
 90
        0
176
     1
 62
     7
176
     1
 62
   257
176
     1
 90
        1
176
     1
 90
        1
176
     1
 40
1.0
176
     1
 90
        0
176
     1
 62
   257
176
     1
 40
1.0
176
     1
 90
        1
176
     1
 90
        6
176
     1
 90
        2
176
     1
 62
     7
176
     1
 90
        5
176
     1
 90
        0
176
     1
 90
        0
176
     1
290
     0
176
     1
 90
       13
176
     1
 40
0.0
176
     1
 90
        0
176
     1
290
     0
176
     1
290
     1
176
     1
290
     1
176
     1
290
     0
176
     1
290
     0
176
     1
290
     0
176
     1
290
     0
176
     1
290
     0
176
     1
290
     0
176
     1
 90
       50
176
     1
 40
0.0
176
     1
 40
1.0
176
     1
 90
        0
176
     1
 62
    18
420
        0
176
     1
 90
       50
176
     1
 90
        3
176
     1
 62
     5
420
      255
176
     1
290
     0
176
     1
 90
       50
176
     1
 90
       50
176
     1
 90
       50
176
     1
290
     0
176
     1
 90
       50
176
     1
 62
   256
176
     0
 40
1.0
176
     0
 90
        2
176
     1
  1
strokes_ogs.tif
176
     1
290
     0
176
     1
 40
1.0
176
     1
 40
1.0
176
     1
1001
ACAD
1000
AcDbSavedByObjectVersion
1070
     0
  0
VISUALSTYLE
  5
31
102
{ACAD_REACTORS
330
29
102
}
330
29
100
AcDbVisualStyle
  2
Hidden
 70
     6
177
     3
291
     0
 70
    58
 90
        1
176
     1
 90
        2
176
     1
 90
        2
176
     1
 90
        0
176
     1
 40
0.6
176
     1
 40
30.0
176
     1
 62
     7
420
 16777215
176
     1
 90
        2
176
     1
 90
        2
176
     1
 62
     7
176
     1
 62
   257
176
     1
 90
        2
176
     1
 90
        1
176
     1
 40
40.0
176
     1
 90
        0
176
     1
 62
   257
176
     1
 40
1.0
176
     1
 90
        1
176
     1
 90
        6
176
     1
 90
        2
176
     1
 62
     7
176
     1
 90
        3
176
     1
 90
        0
176
     1
 90
        0
176
     1
290
     0
176
     1
 90
        1
176
     1
 40
0.0
176
     1
 90
        0
176
     1
290
     0
176
     1
290
     1
176
     1
290
     1
176
     1
290
     0
176
     1
290
     0
176
     1
290
     0
176
     1
290
     0
176
     1
290
     0
176
     1
290
     0
176
     1
 90
       50
176
     1
 40
0.0
176
     1
 40
1.0
176
     1
 90
        0
176
     1
 62
    18
420
        0
176
     1
 90
       50
176
     1
 90
        3
176
     1
 62
     5
420
      255
176
     1
290
     0
176
     1
 90
       50
176
     1
 90
       50
176
     1
 90
       50
176
     1
290
     0
176
     1
 90
       50
176
     1
 62
   256
176
     0
 40
1.0
176
     0
 90
        2
176
     1
  1
strokes_ogs.tif
176
     1
290
     0
176
     1
 40
1.0
176
     1
 40
1.0
176
     1
1001
ACAD
1000
AcDbSavedByObjectVersion
1070
     0
  0
VISUALSTYLE
  5
3F
102
{ACAD_REACTORS
330
29
102
}
330
29
100
AcDbVisualStyle
  2
JitterOff
 70
    20
177
     3
291
     1
 70
    58
 90
        2
176
     0
 90
        2
176
     0
 90
        0
176
     0
 90
        0
176
     0
 40
0.6
176
     0
 40
30.0
176
     0
 62
     7
420
 16777215
176
     0
 90
        1
176
     0
 90
        4
176
     0
 62
     7
176
     0
 62
   257
176
     0
 90
        1
176
     0
 90
        1
176
     0
 40
1.0
176
     0
 90
       10
176
     2
 62
     7
176
     0
 40
1.0
176
     0
 90
        1
176
     0
 90
        6
176
     0
 90
        2
176
     0
 62
     7
176
     0
 90
        5
176
     0
 90
        0
176
     0
 90
        0
176
     0
290
     0
176
     0
 90
        1
176
     0
 40
0.0
176
     0
 90
        0
176
     0
290
     0
176
     0
290
     1
176
     0
290
     1
176
     0
290
     0
176
     0
290
     0
176
     0
290
     0
176
     0
290
     0
176
     0
290
     0
176
     0
290
     0
176
     0
 90
       50
176
     0
 40
0.0
176
     0
 40
1.0
176
     0
 90
        0
176
     0
 62
    18
420
        0
176
     0
 90
       50
176
     0
 90
        3
176
     0
 62
     5
420
      255
176
     0
290
     0
176
     0
 90
       50
176
     0
 90
       50
176
     0
 90
       50
176
     0
290
     0
176
     0
 90
       50
176
     0
 62
   256
176
     0
 40
1.0
176
     0
 90
        2
176
     0
  1
strokes_ogs.tif
176
     0
290
     0
176
     0
 40
1.0
176
     0
 40
1.0
176
     0
1001
ACAD
1000
AcDbSavedByObjectVersion
1070
     0
  0
VISUALSTYLE
  5
37
102
{ACAD_REACTORS
330
29
102
}
330
29
100
AcDbVisualStyle
  2
Linepattern
 70
    14
177
     3
291
     1
 70
    58
 90
        2
176
     1
 90
        2
176
     1
 90
        0
176
     1
 90
        0
176
     1
 40
0.6
176
     1
 40
30.0
176
     1
 62
     7
420
 16777215
176
     1
 90
        1
176
     1
 90
        4
176
     1
 62
     7
176
     1
 62
   257
176
     1
 90
        7
176
     1
 90
        7
176
     1
 40
1.0
176
     1
 90
        8
176
     1
 62
     7
176
     1
 40
1.0
176
     1
 90
        1
176
     1
 90
        6
176
     1
 90
        2
176
     1
 62
     7
176
     1
 90
        5
176
     1
 90
        0
176
     1
 90
        0
176
     1
290
     0
176
     1
 90
        1
176
     1
 40
0.0
176
     1
 90
        0
176
     1
290
     0
176
     1
290
     1
176
     1
290
     1
176
     1
290
     0
176
     1
290
     0
176
     1
290
     0
176
     1
290
     0
176
     1
290
     0
176
     1
290
     0
176
     1
 90
       50
176
     1
 40
0.0
176
     1
 40
1.0
176
     1
 90
        0
176
     1
 62
    18
420
        0
176
     1
 90
       50
176
     1
 90
        3
176
     1
 62
     5
420
      255
176
     1
290
     0
176
     1
 90
       50
176
     1
 90
       50
176
     1
 90
       50
176
     1
290
     0
176
     1
 90
       50
176
     1
 62
   256
176
     0
 40
1.0
176
     0
 90
        2
176
     1
  1
strokes_ogs.tif
176
     1
290
     0
176
     1
 40
1.0
176
     1
 40
1.0
176
     1
1001
ACAD
1000
AcDbSavedByObjectVersion
1070
     0
  0
VISUALSTYLE
  5
40
102
{ACAD_REACTORS
330
29
102
}
330
29
100
AcDbVisualStyle
  2
OverhangOff
 70
    21
177
     3
291
     1
 70
    58
 90
        2
176
     0
 90
        2
176
     0
 90
        0
176
     0
 90
        0
176
     0
 40
0.6
176
     0
 40
30.0
176
     0
 62
     7
420
 16777215
176
     0
 90
        1
176
     0
 90
        4
176
     0
 62
     7
176
     0
 62
   257
176
     0
 90
        1
176
     0
 90
        1
176
     0
 40
1.0
176
     0
 90
        9
176
     2
 62
     7
176
     0
 40
1.0
176
     0
 90
        1
176
     0
 90
        6
176
     0
 90
        2
176
     0
 62
     7
176
     0
 90
        5
176
     0
 90
        0
176
     0
 90
        0
176
     0
290
     0
176
     0
 90
        1
176
     0
 40
0.0
176
     0
 90
        0
176
     0
290
     0
176
     0
290
     1
176
     0
290
     1
176
     0
290
     0
176
     0
290
     0
176
     0
290
     0
176
     0
290
     0
176
     0
290
     0
176
     0
290
     0
176
     0
 90
       50
176
     0
 40
0.0
176
     0
 40
1.0
176
     0
 90
        0
176
     0
 62
    18
420
        0
176
     0
 90
       50
176
     0
 90
        3
176
     0
 62
     5
420
      255
176
     0
290
     0
176
     0
 90
       50
176
     0
 90
       50
176
     0
 90
       50
176
     0
290
     0
176
     0
 90
       50
176
     0
 62
   256
176
     0
 40
1.0
176
     0
 90
        2
176
     0
  1
strokes_ogs.tif
176
     0
290
     0
176
     0
 40
1.0
176
     0
 40
1.0
176
     0
1001
ACAD
1000
AcDbSavedByObjectVersion
1070
     0
  0
VISUALSTYLE
  5
33
102
{ACAD_REACTORS
330
29
102
}
330
29
100
AcDbVisualStyle
  2
Realistic
 70
     8
177
     3
291
     0
 70
    58
 90
        2
176
     1
 90
        3
176
     1
 90
        0
176
     1
 90
        2
176
     1
 40
0.6
176
     1
 40
30.0
176
     1
 62
     7
420
 16777215
176
     1
 90
        0
176
     1
 90
        0
176
     1
 62
     7
176
     1
 62
   257
176
     1
 90
        1
176
     1
 90
        1
176
     1
 40
1.0
176
     1
 90
        8
176
     1
 62
   257
176
     1
 40
1.0
176
     1
 90
        1
176
     1
 90
        6
176
     1
 90
        2
176
     1
 62
     7
176
     1
 90
        3
176
     1
 90
        0
176
     1
 90
        0
176
     1
290
     0
176
     1
 90
       13
176
     1
 40
0.0
176
     1
 90
        0
176
     1
290
     0
176
     1
290
     1
176
     1
290
     1
176
     1
290
     0
176
     1
290
     0
176
     1
290
     0
176
     1
290
     0
176
     1
290
     0
176
     1
290
     0
176
     1
 90
       50
176
     1
 40
0.0
176
     1
 40
1.0
176
     1
 90
        0
176
     1
 62
    18
420
        0
176
     1
 90
       50
176
     1
 90
        3
176
     1
 62
     5
420
      255
176
     1
290
     0
176
     1
 90
       50
176
     1
 90
       50
176
     1
 90
       50
176
     1
290
     0
176
     1
 90
       50
176
     1
 62
   256
176
     0
 40
1.0
176
     0
 90
        2
176
     1
  1
strokes_ogs.tif
176
     1
290
     0
176
     1
 40
1.0
176
     1
 40
1.0
176
     1
1001
ACAD
1000
AcDbSavedByObjectVersion
1070
     0
  0
VISUALSTYLE
  5
285
102
{ACAD_REACTORS
330
29
102
}
330
29
100
AcDbVisualStyle
  2

 70
     3
177
     3
291
     1
 70
    58
 90
        2
176
     1
 90
        2
176
     1
 90
        1
176
     1
 90
        2
176
     1
 40
0.6
176
     1
 40
30.0
176
     1
 62
     7
420
 16777215
176
     1
 90
        1
176
     1
 90
        0
176
     1
 62
     7
176
     1
 62
   257
176
     1
 90
        1
176
     1
 90
        1
176
     1
 40
1.0
176
     1
 90
        0
176
     1
 62
   257
176
     1
 40
1.0
176
     1
 90
        1
176
     1
 90
        6
176
     1
 90
        2
176
     1
 62
     7
176
     1
 90
        5
176
     1
 90
        0
176
     1
 90
        0
176
     1
290
     0
176
     1
 90
       13
176
     1
 40
0.0
176
     1
 90
        0
176
     1
290
     0
176
     1
290
     1
176
     1
290
     1
176
     1
290
     0
176
     1
290
     0
176
     1
290
     0
176
     1
290
     0
176
     1
290
     0
176
     1
290
     0
176
     1
 90
       50
176
     1
 40
0.0
176
     1
 40
1.0
176
     1
 90
        0
176
     1
 62
    18
420
        0
176
     1
 90
       50
176
     1
 90
        3
176
     1
 62
     5
420
      255
176
     1
290
     0
176
     1
 90
       50
176
     1
 90
       50
176
     1
 90
       50
176
     1
290
     0
176
     1
 90
       50
176
     1
 62
   256
176
     0
 40
1.0
176
     0
 90
        2
176
     1
  1
strokes_ogs.tif
176
     1
290
     0
176
     1
 40
1.0
176
     1
 40
1.0
176
     1
1001
ACAD
1000
AcDbSavedByObjectVersion
1070
     0
  0
VISUALSTYLE
  5
3E
102
{ACAD_REACTORS
330
29
102
}
330
29
100
AcDbVisualStyle
  2
Shaded
 70
    27
177
     3
291
     0
 70
    58
 90
        2
176
     1
 90
        2
176
     1
 90
        1
176
     1
 90
        2
176
     1
 40
0.6
176
     1
 40
30.0
176
     1
 62
     7
420
 16777215
176
     1
 90
        0
176
     1
 90
        4
176
     1
 62
     7
176
     1
 62
   257
176
     1
 90
        1
176
     1
 90
        1
176
     1
 40
1.0
176
     1
 90
        8
176
     1
 62
   257
176
     1
 40
1.0
176
     1
 90
        1
176
     1
 90
        6
176
     1
 90
        2
176
     1
 62
     8
420
  7895160
176
     1
 90
        3
176
     1
 90
        0
176
     1
 90
        0
176
     1
290
     0
176
     1
 90
        5
176
     1
 40
0.0
176
     1
 90
        0
176
     1
290
     0
176
     1
290
     1
176
     1
290
     1
176
     1
290
     0
176
     1
290
     0
176
     1
290
     0
176
     1
290
     0
176
     1
290
     0
176
     1
290
     0
176
     1
 90
       50
176
     1
 40
0.0
176
     1
 40
1.0
176
     1
 90
        0
176
     1
 62
    18
420
        0
176
     1
 90
       50
176
     1
 90
        3
176
     1
 62
     5
420
      255
176
     1
290
     0
176
     1
 90
       50
176
     1
 90
       50
176
     1
 90
       50
176
     1
290
     0
176
     1
 90
       50
176
     1
 62
   256
176
     0
 40
1.0
176
     0
 90
        2
176
     1
  1
strokes_ogs.tif
176
     1
290
     0
176
     1
 40
1.0
176
     1
 40
1.0
176
     1
1001
ACAD
1000
AcDbSavedByObjectVersion
1070
     0
  0
VISUALSTYLE
  5
3D
102
{ACAD_REACTORS
330
29
102
}
330
29
100
AcDbVisualStyle
  2
Shaded with edges
 70
    26
177
     3
291
     0
 70
    58
 90
        2
176
     1
 90
        2
176
     1
 90
        1
176
     1
 90
        2
176
     1
 40
0.6
176
     1
 40
30.0
176
     1
 62
     7
420
 16777215
176
     1
 90
        1
176
     1
 90
        2
176
     1
 62
     7
176
     1
 62
   257
176
     1
 90
        2
176
     1
 90
        1
176
     1
 40
1.0
176
     1
 90
        8
176
     1
 62
   257
176
     1
 40
1.0
176
     1
 90
        1
176
     1
 90
        6
176
     1
 90
        2
176
     1
 62
     7
176
     1
 90
        3
176
     1
 90
        0
176
     1
 90
        0
176
     1
290
     0
176
     1
 90
        5
176
     1
 40
0.0
176
     1
 90
        0
176
     1
290
     0
176
     1
290
     1
176
     1
290
     1
176
     1
290
     0
176
     1
290
     0
176
     1
290
     0
176
     1
290
     0
176
     1
290
     0
176
     1
290
     0
176
     1
 90
       50
176
     1
 40
0.0
176
     1
 40
1.0
176
     1
 90
        0
176
     1
 62
    18
420
        0
176
     1
 90
       50
176
     1
 90
        3
176
     1
 62
     5
420
      255
176
     1
290
     0
176
     1
 90
       50
176
     1
 90
       50
176
     1
 90
       50
176
     1
290
     0
176
     1
 90
       50
176
     1
 62
   256
176
     0
 40
1.0
176
     0
 90
        2
176
     1
  1
strokes_ogs.tif
176
     1
290
     0
176
     1
 40
1.0
176
     1
 40
1.0
176
     1
1001
ACAD
1000
AcDbSavedByObjectVersion
1070
     0
  0
VISUALSTYLE
  5
3A
102
{ACAD_REACTORS
330
29
102
}
330
29
100
AcDbVisualStyle
  2
Shades of Gray
 70
    23
177
     3
291
     0
 70
    58
 90
        2
176
     1
 90
        2
176
     1
 90
        3
176
     1
 90
        0
176
     1
 40
0.6
176
     1
 40
30.0
176
     1
 62
     7
420
 16777215
176
     1
 90
        2
176
     1
 90
        2
176
     1
 62
     7
176
     1
 62
     7
176
     1
 90
        1
176
     1
 90
        1
176
     1
 40
40.0
176
     1
 90
        8
176
     1
 62
     7
176
     1
 40
1.0
176
     1
 90
        1
176
     1
 90
        6
176
     1
 90
        2
176
     1
 62
     7
176
     1
 90
        3
176
     1
 90
        0
176
     1
 90
        0
176
     1
290
     0
176
     1
 90
        1
176
     1
 40
0.0
176
     1
 90
        0
176
     1
290
     0
176
     1
290
     1
176
     1
290
     1
176
     1
290
     0
176
     1
290
     0
176
     1
290
     0
176
     1
290
     0
176
     1
290
     0
176
     1
290
     0
176
     1
 90
       50
176
     1
 40
0.0
176
     1
 40
1.0
176
     1
 90
        0
176
     1
 62
    18
420
        0
176
     1
 90
       50
176
     1
 90
        3
176
     1
 62
     5
420
      255
176
     1
290
     0
176
     1
 90
       50
176
     1
 90
       50
176
     1
 90
       50
176
     1
290
     0
176
     1
 90
       50
176
     1
 62
   256
176
     0
 40
1.0
176
     0
 90
        2
176
     1
  1
strokes_ogs.tif
176
     1
290
     0
176
     1
 40
1.0
176
     1
 40
1.0
176
     1
1001
ACAD
1000
AcDbSavedByObjectVersion
1070
     0
  0
VISUALSTYLE
  5
3B
102
{ACAD_REACTORS
330
29
102
}
330
29
100
AcDbVisualStyle
  2
Sketchy
 70
    24
177
     3
291
     0
 70
    58
 90
        1
176
     1
 90
        2
176
     1
 90
        2
176
     1
 90
        0
176
     1
 40
0.6
176
     1
 40
30.0
176
     1
 62
     7
420
 16777215
176
     1
 90
        2
176
     1
 90
        2
176
     1
 62
     7
176
     1
 62
     7
176
     1
 90
        1
176
     1
 90
        1
176
     1
 40
40.0
176
     1
 90
       11
176
     1
 62
     7
176
     1
 40
1.0
176
     1
 90
        1
176
     1
 90
        6
176
     1
 90
        2
176
     1
 62
     7
176
     1
 90
        6
176
     1
 90
        0
176
     1
 90
        0
176
     1
290
     0
176
     1
 90
        1
176
     1
 40
0.0
176
     1
 90
        0
176
     1
290
     0
176
     1
290
     1
176
     1
290
     1
176
     1
290
     0
176
     1
290
     0
176
     1
290
     0
176
     1
290
     0
176
     1
290
     0
176
     1
290
     0
176
     1
 90
       50
176
     1
 40
0.0
176
     1
 40
1.0
176
     1
 90
        0
176
     1
 62
    18
420
        0
176
     1
 90
       50
176
     1
 90
        3
176
     1
 62
     5
420
      255
176
     1
290
     0
176
     1
 90
       50
176
     1
 90
       50
176
     1
 90
       50
176
     1
290
     0
176
     1
 90
       50
176
     1
 62
   256
176
     0
 40
1.0
176
     0
 90
        2
176
     1
  1
strokes_ogs.tif
176
     1
290
     0
176
     1
 40
1.0
176
     1
 40
1.0
176
     1
1001
ACAD
1000
AcDbSavedByObjectVersion
1070
     0
  0
VISUALSTYLE
  5
36
102
{ACAD_REACTORS
330
29
102
}
330
29
100
AcDbVisualStyle
  2
Thicken
 70
    13
177
     3
291
     1
 70
    58
 90
        2
176
     1
 90
        2
176
     1
 90
        0
176
     1
 90
        0
176
     1
 40
0.6
176
     1
 40
30.0
176
     1
 62
     7
420
 16777215
176
     1
 90
        1
176
     1
 90
        4
176
     1
 62
     7
176
     1
 62
   257
176
     1
 90
        1
176
     1
 90
        1
176
     1
 40
1.0
176
     1
 90
       12
176
     1
 62
     7
176
     1
 40
1.0
176
     1
 90
        1
176
     1
 90
        6
176
     1
 90
        2
176
     1
 62
     7
176
     1
 90
        5
176
     1
 90
        0
176
     1
 90
        0
176
     1
290
     0
176
     1
 90
        1
176
     1
 40
0.0
176
     1
 90
        0
176
     1
290
     0
176
     1
290
     1
176
     1
290
     1
176
     1
290
     0
176
     1
290
     0
176
     1
290
     0
176
     1
290
     0
176
     1
290
     0
176
     1
290
     0
176
     1
 90
       50
176
     1
 40
0.0
176
     1
 40
1.0
176
     1
 90
        0
176
     1
 62
    18
420
        0
176
     1
 90
       50
176
     1
 90
        3
176
     1
 62
     5
420
      255
176
     1
290
     0
176
     1
 90
       50
176
     1
 90
       50
176
     1
 90
       50
176
     1
290
     0
176
     1
 90
       50
176
     1
 62
   256
176
     0
 40
1.0
176
     0
 90
        2
176
     1
  1
strokes_ogs.tif
176
     1
290
     0
176
     1
 40
1.0
176
     1
 40
1.0
176
     1
1001
ACAD
1000
AcDbSavedByObjectVersion
1070
     0
  0
VISUALSTYLE
  5
30
102
{ACAD_REACTORS
330
29
102
}
330
29
100
AcDbVisualStyle
  2
Wireframe
 70
     5
177
     3
291
     0
 70
    58
 90
        0
176
     1
 90
        2
176
     1
 90
        0
176
     1
 90
        0
176
     1
 40
0.6
176
     1
 40
30.0
176
     1
 62
     7
420
 16777215
176
     1
 90
        1
176
     1
 90
        4
176
     1
 62
     7
176
     1
 62
   257
176
     1
 90
        1
176
     1
 90
        1
176
     1
 40
1.0
176
     1
 90
        0
176
     1
 62
   257
176
     1
 40
1.0
176
     1
 90
        1
176
     1
 90
        6
176
     1
 90
        2
176
     1
 62
     7
176
     1
 90
        3
176
     1
 90
        0
176
     1
 90
        0
176
     1
290
     0
176
     1
 90
        1
176
     1
 40
0.0
176
     1
 90
        0
176
     1
290
     0
176
     1
290
     1
176
     1
290
     1
176
     1
290
     0
176
     1
290
     0
176
     1
290
     0
176
     1
290
     0
176
     1
290
     0
176
     1
290
     0
176
     1
 90
       50
176
     1
 40
0.0
176
     1
 40
1.0
176
     1
 90
        0
176
     1
 62
    18
420
        0
176
     1
 90
       50
176
     1
 90
        3
176
     1
 62
     5
420
      255
176
     1
290
     0
176
     1
 90
       50
176
     1
 90
       50
176
     1
 90
       50
176
     1
290
     0
176
     1
 90
       50
176
     1
 62
   256
176
     0
 40
1.0
176
     0
 90
        2
176
     1
  1
strokes_ogs.tif
176
     1
290
     0
176
     1
 40
1.0
176
     1
 40
1.0
176
     1
1001
ACAD
1000
AcDbSavedByObjectVersion
1070
     0
  0
VISUALSTYLE
  5
3C
102
{ACAD_REACTORS
330
29
102
}
330
29
100
AcDbVisualStyle
  2
X-Ray
 70
    25
177
     3
291
     0
 70
    58
 90
        2
176
     1
 90
        2
176
     1
 90
        1
176
     1
 90
        1
176
     1
 40
0.5
176
     1
 40
30.0
176
     1
 62
     7
420
 16777215
176
     1
 90
        1
176
     1
 90
        0
176
     1
 62
     7
176
     1
 62
   257
176
     1
 90
        1
176
     1
 90
        1
176
     1
 40
1.0
176
     1
 90
        8
176
     1
 62
     7
176
     1
 40
1.0
176
     1
 90
        1
176
     1
 90
        6
176
     1
 90
        2
176
     1
 62
     7
176
     1
 90
        3
176
     1
 90
        0
176
     1
 90
        0
176
     1
290
     0
176
     1
 90
       13
176
     1
 40
0.0
176
     1
 90
        0
176
     1
290
     0
176
     1
290
     1
176
     1
290
     1
176
     1
290
     0
176
     1
290
     0
176
     1
290
     0
176
     1
290
     0
176
     1
290
     0
176
     1
290
     0
176
     1
 90
       50
176
     1
 40
0.0
176
     1
 40
1.0
176
     1
 90
        0
176
     1
 62
    18
420
        0
176
     1
 90
       50
176
     1
 90
        3
176
     1
 62
     5
420
      255
176
     1
290
     0
176
     1
 90
       50
176
     1
 90
       50
176
     1
 90
       50
176
     1
290
     0
176
     1
 90
       50
176
     1
 62
   256
176
     0
 40
1.0
176
     0
 90
        2
176
     1
  1
strokes_ogs.tif
176
     1
290
     0
176
     1
 40
1.0
176
     1
 40
1.0
176
     1
1001
ACAD
1000
AcDbSavedByObjectVersion
1070
     0
  0
DICTIONARYVAR
  5
80
102
{ACAD_REACTORS
330
7B
102
}
330
7B
100
DictionaryVariables
280
     0
  1
1:1
  0
DICTIONARYVAR
  5
7D
102
{ACAD_REACTORS
330
7B
102
}
330
7B
100
DictionaryVariables
280
     0
  1
STANDARD
  0
DICTIONARYVAR
  5
7C
102
{ACAD_REACTORS
330
7B
102
}
330
7B
100
DictionaryVariables
280
     0
  1
STANDARD
  0
DICTIONARYVAR
  5
7E
102
{ACAD_REACTORS
330
7B
102
}
330
7B
100
DictionaryVariables
280
     0
  1
Imperial24
  0
DICTIONARYVAR
  5
7F
102
{ACAD_REACTORS
330
7B
102
}
330
7B
100
DictionaryVariables
280
     0
  1
Imperial24
  0
XRECORD
  5
28E
102
{ACAD_REACTORS
330
28A
102
}
330
28A
100
AcDbXrecord
280
     1
  1
BUILDING_ID
  1
Schutzkappen 45
  1
FLOOR_ID
  1
52
  0
XRECORD
  5
28C
102
{ACAD_REACTORS
330
28A
102
}
330
28A
100
AcDbXrecord
280
     1
  1
-2000151
  1
Allgemeines Modell
  1
-2001140
  1
HLS-Bauteile
  0
XRECORD
  5
28D
102
{ACAD_REACTORS
330
28A
102
}
330
28A
100
AcDbXrecord
280
     1
  1
7518
  1
MEFA Grafik
  0
XRECORD
  5
28B
102
{ACAD_REACTORS
330
28A
102
}
330
28A
100
AcDbXrecord
280
     1
  1
13007
  1
MEFA Logo Dübel Rot klein.0001 : MEFA Logo Dübel Rot klein.0001
  0
DICTIONARY
  5
294
330
6B
100
AcDbDictionary
280
     1
281
     1
  3
ACAD_XREC_ROUNDTRIP
360
295
  0
DICTIONARY
  5
1A
330
19
100
AcDbDictionary
280
     1
281
     1
  3
BUMPTILE
360
1C
  3
DIFFUSETILE
360
1B
  3
OPACITYTILE
360
1F
  3
REFLECTIONTILE
360
1E
  3
REFRACTIONTILE
360
20
  3
SPECULARTILE
360
1D
  0
DICTIONARY
  5
12
330
11
100
AcDbDictionary
280
     1
281
     1
  3
BUMPTILE
360
14
  3
DIFFUSETILE
360
13
  3
OPACITYTILE
360
17
  3
REFLECTIONTILE
360
16
  3
REFRACTIONTILE
360
18
  3
SPECULARTILE
360
15
  0
DICTIONARY
  5
22
330
21
100
AcDbDictionary
280
     1
281
     1
  3
BUMPTILE
360
24
  3
DIFFUSETILE
360
23
  3
OPACITYTILE
360
27
  3
REFLECTIONTILE
360
26
  3
REFRACTIONTILE
360
28
  3
SPECULARTILE
360
25
  0
DICTIONARY
  5
288
330
287
100
AcDbDictionary
280
     1
281
     1
  3
VIZ XML Material Definition
360
289
  0
DICTIONARY
  5
292
330
69
100
AcDbDictionary
280
     1
281
     1
  3
ACAD_XREC_ROUNDTRIP
360
293
  0
DICTIONARY
  5
28F
330
65
100
AcDbDictionary
280
     1
281
     1
  3
ACAD_ROUNDTRIP_2008_TABLESTYLE_CELLSTYLEMAP
360
290
  0
XRECORD
  5
295
102
{ACAD_REACTORS
330
294
102
}
330
294
100
AcDbXrecord
280
     1
102
DISPLAYNAME
  1
Imperial24
102
FLAGS
 90
        0
  0
XRECORD
  5
1C
102
{ACAD_REACTORS
330
1A
102
}
330
1A
100
AcDbXrecord
280
     1
270
     1
271
     1
  0
XRECORD
  5
1B
102
{ACAD_REACTORS
330
1A
102
}
330
1A
100
AcDbXrecord
280
     1
270
     1
271
     1
  0
XRECORD
  5
1F
102
{ACAD_REACTORS
330
1A
102
}
330
1A
100
AcDbXrecord
280
     1
270
     1
271
     1
  0
XRECORD
  5
1E
102
{ACAD_REACTORS
330
1A
102
}
330
1A
100
AcDbXrecord
280
     1
270
     1
271
     1
  0
XRECORD
  5
20
102
{ACAD_REACTORS
330
1A
102
}
330
1A
100
AcDbXrecord
280
     1
270
     1
271
     1
  0
XRECORD
  5
1D
102
{ACAD_REACTORS
330
1A
102
}
330
1A
100
AcDbXrecord
280
     1
270
     1
271
     1
  0
XRECORD
  5
14
102
{ACAD_REACTORS
330
12
102
}
330
12
100
AcDbXrecord
280
     1
270
     1
271
     1
  0
XRECORD
  5
13
102
{ACAD_REACTORS
330
12
102
}
330
12
100
AcDbXrecord
280
     1
270
     1
271
     1
  0
XRECORD
  5
17
102
{ACAD_REACTORS
330
12
102
}
330
12
100
AcDbXrecord
280
     1
270
     1
271
     1
  0
XRECORD
  5
16
102
{ACAD_REACTORS
330
12
102
}
330
12
100
AcDbXrecord
280
     1
270
     1
271
     1
  0
XRECORD
  5
18
102
{ACAD_REACTORS
330
12
102
}
330
12
100
AcDbXrecord
280
     1
270
     1
271
     1
  0
XRECORD
  5
15
102
{ACAD_REACTORS
330
12
102
}
330
12
100
AcDbXrecord
280
     1
270
     1
271
     1
  0
XRECORD
  5
24
102
{ACAD_REACTORS
330
22
102
}
330
22
100
AcDbXrecord
280
     1
270
     1
271
     1
  0
XRECORD
  5
23
102
{ACAD_REACTORS
330
22
102
}
330
22
100
AcDbXrecord
280
     1
270
     1
271
     1
  0
XRECORD
  5
27
102
{ACAD_REACTORS
330
22
102
}
330
22
100
AcDbXrecord
280
     1
270
     1
271
     1
  0
XRECORD
  5
26
102
{ACAD_REACTORS
330
22
102
}
330
22
100
AcDbXrecord
280
     1
270
     1
271
     1
  0
XRECORD
  5
28
102
{ACAD_REACTORS
330
22
102
}
330
22
100
AcDbXrecord
280
     1
270
     1
271
     1
  0
XRECORD
  5
25
102
{ACAD_REACTORS
330
22
102
}
330
22
100
AcDbXrecord
280
     1
270
     1
271
     1
  0
XRECORD
  5
289
102
{ACAD_REACTORS
330
288
102
}
330
288
100
AcDbXrecord
280
     1
300
<Material id="RevitMaterialDefinition7490" app="REVIT" Background="0" Backlight="1" Sample="0" Tiling="0">^J<LinearUnits unitType="foot" unitScale="1.0"/>^J<ArchitecturalMaterial name="Acetalharz, schwarz">^J<ArchTemplateParameters name="Acetalharz, schwarz"
300
 classid_A="2008828122" classid_B="14503598">^J</ArchTemplateParameters>^J<ArchMatParameters>^J<ArchDiffuseColor>^J<RGBf r="0.4706" g="0.4706" b="0.4706"/>^J</ArchDiffuseColor>^J<ArchIndexOfRefraction>1.5000</ArchIndexOfRefraction>^J<ArchTransparency>0.0000</Arc
300
hTransparency>^J<ArchLuminance>0.0000</ArchLuminance>^J</ArchMatParameters>^J</ArchitecturalMaterial>^J</Material>^J
  0
XRECORD
  5
293
102
{ACAD_REACTORS
330
292
102
}
330
292
100
AcDbXrecord
280
     1
102
DISPLAYNAME
  1
Imperial24
102
FLAGS
 90
        0
  0
CELLSTYLEMAP
  5
290
102
{ACAD_REACTORS
330
28F
102
}
330
28F
100
AcDbCellStyleMap
 90
        3
300
CELLSTYLE
  1
TABLEFORMAT_BEGIN
 90
        5
170
     1
 91
        0
 92
    32768
 62
   257
 93
        1
300
CONTENTFORMAT
  1
CONTENTFORMAT_BEGIN
 90
        0
 91
        0
 92
      512
 93
        0
300

 40
0.0
140
1.0
 94
        5
 62
     0
340
55
144
0.25
309
CONTENTFORMAT_END
171
     0
 94
        0
309
TABLEFORMAT_END
  1
CELLSTYLE_BEGIN
 90
        1
 91
        1
300
_TITLE
309
CELLSTYLE_END
300
CELLSTYLE
  1
TABLEFORMAT_BEGIN
 90
        5
170
     1
 91
        0
 92
        0
 62
   257
 93
        1
300
CONTENTFORMAT
  1
CONTENTFORMAT_BEGIN
 90
        0
 91
        0
 92
      512
 93
        0
300

 40
0.0
140
1.0
 94
        5
 62
     0
340
55
144
0.18
309
CONTENTFORMAT_END
171
     0
 94
        0
309
TABLEFORMAT_END
  1
CELLSTYLE_BEGIN
 90
        2
 91
        1
300
_HEADER
309
CELLSTYLE_END
300
CELLSTYLE
  1
TABLEFORMAT_BEGIN
 90
        5
170
     1
 91
        0
 92
        0
 62
   257
 93
        1
300
CONTENTFORMAT
  1
CONTENTFORMAT_BEGIN
 90
        0
 91
        0
 92
      512
 93
        0
300

 40
0.0
140
1.0
 94
        2
 62
     0
340
55
144
0.18
309
CONTENTFORMAT_END
171
     0
 94
        0
309
TABLEFORMAT_END
  1
CELLSTYLE_BEGIN
 90
        3
 91
        2
300
_DATA
309
CELLSTYLE_END
  0
ENDSEC
  0
SECTION
  2
ACDSDATA
 70
     2
 71
     8
  0
ACDSSCHEMA
 90
        0
  1
AcDb3DSolid_ASM_Data
  2
AcDbDs::ID
280
    10
 91
        8
  2
ASM_Data
280
    15
 91
        0
101
ACDSRECORD
 95
        0
 90
        1
  2
AcDbDs::TreatedAsObjectData
280
     1
291
     1
101
ACDSRECORD
 95
        0
 90
        2
  2
AcDbDs::Legacy
280
     1
291
     1
101
ACDSRECORD
  1
AcDbDs::ID
 90
        3
  2
AcDs:Indexable
280
     1
291
     1
101
ACDSRECORD
  1
AcDbDs::ID
 90
        4
  2
AcDbDs::HandleAttribute
280
     7
282
     1
  0
ACDSSCHEMA
 90
        1
  1
AcDbDs::TreatedAsObjectDataSchema
  2
AcDbDs::TreatedAsObjectData
280
     1
 91
        0
  0
ACDSSCHEMA
 90
        2
  1
AcDbDs::LegacySchema
  2
AcDbDs::Legacy
280
     1
 91
        0
  0
ACDSSCHEMA
 90
        3
  1
AcDbDs::IndexedPropertySchema
  2
AcDs:Indexable
280
     1
 91
        0
  0
ACDSSCHEMA
 90
        4
  1
AcDbDs::HandleAttributeSchema
  2
AcDbDs::HandleAttribute
280
     7
 91
        1
284
     1
  0
ACDSRECORD
 90
        0
  2
AcDbDs::ID
280
    10
320
8A
  2
ASM_Data
280
    15
 94
    18345
310
414349532042696E61727946696C652855000000000000020000000C00000007104175746F6465736B204175746F434144071341534D203232332E302E312E31393330204E540718536174204F63742032332031353A31383A3333203230323106000000000000F03F068DEDB5A0F7C6B03E06BBBDD7D9DF7CDB3D0D096173
310
6D6865616465720CFFFFFFFF04FFFFFFFF070C3232332E302E312E31393330110D04626F64790CFFFFFFFF04FFFFFFFF0CFFFFFFFF0C020000000CFFFFFFFF0CFFFFFFFF110D046C756D700CFFFFFFFF04FFFFFFFF0CFFFFFFFF0CFFFFFFFF0C030000000C01000000110D057368656C6C0CFFFFFFFF04FFFFFFFF0CFFFFFF
310
FF0CFFFFFFFF0CFFFFFFFF0C040000000CFFFFFFFF0C02000000110D04666163650C0500000004FFFFFFFF0CFFFFFFFF0C060000000C070000000C030000000CFFFFFFFF0C080000000B0B110E0D737472696E675F6174747269620E0B6E616D655F6174747269620E0367656E0D066174747269620CFFFFFFFF04FFFFFFFF
310
0C090000000CFFFFFFFF0C040000001501000000150100000015010000001502000000070E5245564954204252455020544147073033333661663163372D313731372D346463302D613232392D6266356465336665373231642D30303030316365623A3433110D04666163650C0A00000004FFFFFFFF0CFFFFFFFF0C0B0000
310
000C0C0000000C030000000CFFFFFFFF0C0D0000000B0B110D046C6F6F700CFFFFFFFF04FFFFFFFF0CFFFFFFFF0CFFFFFFFF0C0E0000000C04000000110E04636F6E650D07737572666163650CFFFFFFFF04FFFFFFFF0CFFFFFFFF1354FF385CD439004092FF385CD439004000000000000000001400000000000000000000
310
000000000000000000000000F0BF1454FF385CD4390040CDCCCCCCCCF4EE3C000000000000000006000000000000F03F0B0B06000000000000000006000000000000F03F06CDCCCCCCCC0C73400B0B0B0B0B110E0E696E74656765725F6174747269620E0B6E616D655F6174747269620E0367656E0D066174747269620CFF
310
FFFFFF04FFFFFFFF0C0F0000000C050000000C04000000150100000015010000001501000000150200000007195245564954204D4154455249414C204F56455252494444454E0400000000110E0D737472696E675F6174747269620E0B6E616D655F6174747269620E0367656E0D066174747269620CFFFFFFFF04FFFFFFFF
310
0C100000000CFFFFFFFF0C060000001501000000150100000015010000001502000000070E5245564954204252455020544147073033333661663163372D313731372D346463302D613232392D6266356465336665373231642D30303030316365623A3239110D04666163650C1100000004FFFFFFFF0CFFFFFFFF0C120000
310
000C130000000C030000000CFFFFFFFF0C140000000B0B110D046C6F6F700CFFFFFFFF04FFFFFFFF0CFFFFFFFF0CFFFFFFFF0C150000000C06000000110E04636F6E650D07737572666163650CFFFFFFFF04FFFFFFFF0CFFFFFFFF13484F6CF6988AFF3FAA9D4C38AB83454000000000000000001400000000000000000000
310
000000000000000000000000F03F144D4F6CF6988AFF3F0000000000000000000000000000000006000000000000F03F0B0B06000000000000000006000000000000F03F06CDCCCCCCCC0C73400B0B0B0B0B110D06636F656467650CFFFFFFFF04FFFFFFFF0CFFFFFFFF0C160000000C170000000C180000000C190000000A
310
0C0700000004000000000CFFFFFFFF110E0E696E74656765725F6174747269620E0B6E616D655F6174747269620E0367656E0D066174747269620CFFFFFFFF04FFFFFFFF0C1A0000000C090000000C04000000150100000015010000001501000000150200000007115245564954204D4154455249414C20494404421D0000
310
110E0E696E74656765725F6174747269620E0B6E616D655F6174747269620E0367656E0D066174747269620CFFFFFFFF04FFFFFFFF0C1B0000000C0A0000000C06000000150100000015010000001501000000150200000007195245564954204D4154455249414C204F56455252494444454E0400000000110E0D73747269
310
6E675F6174747269620E0B6E616D655F6174747269620E0367656E0D066174747269620CFFFFFFFF04FFFFFFFF0C1C0000000CFFFFFFFF0C0B0000001501000000150100000015010000001502000000070E5245564954204252455020544147073033333661663163372D313731372D346463302D613232392D6266356465
310
336665373231642D30303030316365623A3238110D04666163650C1D00000004FFFFFFFF0CFFFFFFFF0C1E0000000C1F0000000C030000000CFFFFFFFF0C200000000B0B110D046C6F6F700CFFFFFFFF04FFFFFFFF0CFFFFFFFF0CFFFFFFFF0C210000000C0B000000110E04636F6E650D07737572666163650CFFFFFFFF04
310
FFFFFFFF0CFFFFFFFF13F763988D037C45400264988D037C454000000000000000001400000000000000000000000000000000000000000000F03F142AC27926C73F00400000000000000000000000000000000006000000000000F03F0B0B06000000000000000006000000000000F03F06CDCCCCCCCC0C73400B0B0B0B0B
310
110D06636F656467650CFFFFFFFF04FFFFFFFF0CFFFFFFFF0C220000000C230000000C240000000C250000000A0C0C00000004000000000CFFFFFFFF110D06636F656467650CFFFFFFFF04FFFFFFFF0CFFFFFFFF0C260000000C0E0000000C270000000C280000000A0C0700000004000000000CFFFFFFFF110D06636F6564
310
67650CFFFFFFFF04FFFFFFFF0CFFFFFFFF0C0E0000000C260000000C290000000C2A0000000A0C0700000004000000000CFFFFFFFF110D06636F656467650CFFFFFFFF04FFFFFFFF0CFFFFFFFF0C2B0000000C2C0000000C0E0000000C190000000B0C2D00000004000000000CFFFFFFFF110D04656467650CFFFFFFFF04FF
310
FFFFFF0CFFFFFFFF0C2E000000061C2D4454FB2109C00C2F000000064C2D4454FB21F9BF0C180000000C300000000B0707756E6B6E6F776E110E0E696E74656765725F6174747269620E0B6E616D655F6174747269620E0367656E0D066174747269620CFFFFFFFF04FFFFFFFF0C310000000C0F0000000C04000000150100
310
0000150100000015010000001502000000071452455649542053554243415445474F525920494404FFFFFFFF110E0E696E74656765725F6174747269620E0B6E616D655F6174747269620E0367656E0D066174747269620CFFFFFFFF04FFFFFFFF0C320000000C100000000C06000000150100000015010000001501000000
310
150200000007115245564954204D4154455249414C20494404421D0000110E0E696E74656765725F6174747269620E0B6E616D655F6174747269620E0367656E0D066174747269620CFFFFFFFF04FFFFFFFF0C330000000C110000000C0B000000150100000015010000001501000000150200000007195245564954204D41
310
54455249414C204F56455252494444454E0400000000110E0D737472696E675F6174747269620E0B6E616D655F6174747269620E0367656E0D066174747269620CFFFFFFFF04FFFFFFFF0C340000000CFFFFFFFF0C120000001501000000150100000015010000001502000000070E52455649542042524550205441470730
310
33333661663163372D313731372D346463302D613232392D6266356465336665373231642D30303030316365623A3237110D04666163650C3500000004FFFFFFFF0CFFFFFFFF0C360000000C370000000C030000000CFFFFFFFF0C380000000B0B110D046C6F6F700CFFFFFFFF04FFFFFFFF0CFFFFFFFF0CFFFFFFFF0C3900
310
00000C12000000110E04636F6E650D07737572666163650CFFFFFFFF04FFFFFFFF0CFFFFFFFF1381D19107718045401DD3C50DDFF1FF3F00000000000000001400000000000000000000000000000000000000000000F03F14E3D5C50DDFF1FF3F343333333393ECBC000000000000000006000000000000F03F0B0B060000
310
00000000000006000000000000F03F06CDCCCCCCCC0C73400B0B0B0B0B110D06636F656467650CFFFFFFFF04FFFFFFFF0CFFFFFFFF0C3A0000000C3B0000000C3C0000000C3D0000000A0C1300000004000000000CFFFFFFFF110D06636F656467650CFFFFFFFF04FFFFFFFF0CFFFFFFFF0C3E0000000C150000000C3F0000
310
000C400000000A0C0C00000004000000000CFFFFFFFF110D06636F656467650CFFFFFFFF04FFFFFFFF0CFFFFFFFF0C150000000C3E0000000C410000000C420000000A0C0C00000004000000000CFFFFFFFF110D06636F656467650CFFFFFFFF04FFFFFFFF0CFFFFFFFF0C2C0000000C430000000C150000000C250000000B
310
0C2D00000004000000000CFFFFFFFF110D04656467650CFFFFFFFF04FFFFFFFF0CFFFFFFFF0C4400000006222D4454FB21F93F0C4500000006102D4454FB2109400C240000000C460000000B0707756E6B6E6F776E110D06636F656467650CFFFFFFFF04FFFFFFFF0CFFFFFFFF0C170000000C160000000C470000000C4800
310
00000A0C0700000004000000000CFFFFFFFF110D06636F656467650CFFFFFFFF04FFFFFFFF0CFFFFFFFF0C490000000C4A0000000C160000000C280000000B0C4B00000004000000000CFFFFFFFF110D04656467650CFFFFFFFF04FFFFFFFF0CFFFFFFFF0C4C0000000600000000000000000C2E000000060A8542A1502884
310
3F0C270000000C4D0000000B070774616E67656E74110D06636F656467650CFFFFFFFF04FFFFFFFF0CFFFFFFFF0C4E0000000C4F0000000C170000000C2A0000000B0C5000000004000000000CFFFFFFFF110D04656467650CFFFFFFFF04FFFFFFFF0CFFFFFFFF0C2F0000000600000000000000000C51000000060A8542A1
310
5028843F0C290000000C520000000B070774616E67656E74110D06636F656467650CFFFFFFFF04FFFFFFFF0CFFFFFFFF0C530000000C180000000C4F0000000C540000000B0C2D00000004000000000CFFFFFFFF110D06636F656467650CFFFFFFFF04FFFFFFFF0CFFFFFFFF0C180000000C240000000C490000000C550000
310
000B0C2D00000004000000000CFFFFFFFF110D046C6F6F700CFFFFFFFF04FFFFFFFF0CFFFFFFFF0CFFFFFFFF0C530000000C56000000110D067665727465780CFFFFFFFF04FFFFFFFF0CFFFFFFFF0C1900000004000000000C57000000110D067665727465780CFFFFFFFF04FFFFFFFF0CFFFFFFFF0C190000000401000000
310
0C58000000110E07656C6C697073650D0563757276650CFFFFFFFF04FFFFFFFF0CFFFFFFFF1354FF385CD439004092FF385CD439004000000000000008401400000000000000000000000000000000000000000000F03F1454FF385CD4390040CDCCCCCCCCF4EE3C000000000000000006000000000000F03F0A061C2D4454
310
FB2109C00A064C2D4454FB21F9BF110E0E696E74656765725F6174747269620E0B6E616D655F6174747269620E0367656E0D066174747269620CFFFFFFFF04FFFFFFFF0C590000000C1A0000000C040000001501000000150100000015010000001502000000071152455649542043415445474F5259204944040C77E1FF11
310
0E0E696E74656765725F6174747269620E0B6E616D655F6174747269620E0367656E0D066174747269620CFFFFFFFF04FFFFFFFF0C5A0000000C1B0000000C060000001501000000150100000015010000001502000000071452455649542053554243415445474F525920494404FFFFFFFF110E0E696E74656765725F6174
310
747269620E0B6E616D655F6174747269620E0367656E0D066174747269620CFFFFFFFF04FFFFFFFF0C5B0000000C1C0000000C0B000000150100000015010000001501000000150200000007115245564954204D4154455249414C20494404421D0000110E0E696E74656765725F6174747269620E0B6E616D655F61747472
310
69620E0367656E0D066174747269620CFFFFFFFF04FFFFFFFF0C5C0000000C1D0000000C12000000150100000015010000001501000000150200000007195245564954204D4154455249414C204F56455252494444454E0400000000110E0D737472696E675F6174747269620E0B6E616D655F6174747269620E0367656E0D
310
066174747269620CFFFFFFFF04FFFFFFFF0C5D0000000CFFFFFFFF0C1E0000001501000000150100000015010000001502000000070E5245564954204252455020544147073033333661663163372D313731372D346463302D613232392D6266356465336665373231642D30303030316365623A3234110D04666163650C5E
310
00000004FFFFFFFF0CFFFFFFFF0C5F0000000C600000000C030000000CFFFFFFFF0C610000000B0B110D046C6F6F700CFFFFFFFF04FFFFFFFF0CFFFFFFFF0CFFFFFFFF0C620000000C1E000000110E05706C616E650D07737572666163650CFFFFFFFF04FFFFFFFF0CFFFFFFFF13F863988D037C4540250000000080464000
310
00000000000840140000000000000000000000000000F03F00000000000000001400000000000000000000000000000000CDCCCCCCCC0C73C00B0B0B0B0B110D06636F656467650CFFFFFFFF04FFFFFFFF0CFFFFFFFF0C630000000C640000000C530000000C650000000A0C1F00000004000000000CFFFFFFFF110D06636F
310
656467650CFFFFFFFF04FFFFFFFF0CFFFFFFFF0C660000000C210000000C670000000C680000000A0C1300000004000000000CFFFFFFFF110D06636F656467650CFFFFFFFF04FFFFFFFF0CFFFFFFFF0C210000000C660000000C690000000C6A0000000A0C1300000004000000000CFFFFFFFF110D06636F656467650CFFFF
310
FFFF04FFFFFFFF0CFFFFFFFF0C430000000C6B0000000C210000000C3D0000000B0C2D00000004000000000CFFFFFFFF110D04656467650CFFFFFFFF04FFFFFFFF0CFFFFFFFF0C6C0000000600000000000000000C6D00000006D92C4454FB21F93F0C3C0000000C6E0000000B0707756E6B6E6F776E110D06636F65646765
310
0CFFFFFFFF04FFFFFFFF0CFFFFFFFF0C230000000C220000000C6F0000000C700000000A0C0C00000004000000000CFFFFFFFF110D06636F656467650CFFFFFFFF04FFFFFFFF0CFFFFFFFF0C620000000C710000000C220000000C400000000B0C3700000004000000000CFFFFFFFF110D04656467650CFFFFFFFF04FFFFFF
310
FF0CFFFFFFFF0C720000000600000000000000000C44000000060A8542A15028843F0C3F0000000C730000000B070774616E67656E74110D06636F656467650CFFFFFFFF04FFFFFFFF0CFFFFFFFF0C4A0000000C490000000C230000000C420000000B0C4B00000004000000000CFFFFFFFF110D04656467650CFFFFFFFF04
310
FFFFFFFF0CFFFFFFFF0C450000000600000000000000000C74000000060A8542A15028843F0C410000000C750000000B070774616E67656E74110D06636F656467650CFFFFFFFF04FFFFFFFF0CFFFFFFFF0C240000000C3C0000000C620000000C760000000B0C2D00000004000000000CFFFFFFFF110D067665727465780C
310
FFFFFFFF04FFFFFFFF0CFFFFFFFF0C2500000004000000000C77000000110D067665727465780CFFFFFFFF04FFFFFFFF0CFFFFFFFF0C2500000004010000000C78000000110E07656C6C697073650D0563757276650CFFFFFFFF04FFFFFFFF0CFFFFFFFF13484F6CF6988AFF3FAA9D4C38AB83454000000000000008401400
310
000000000000000000000000000000000000000000F03F144D4F6CF6988AFF3F0000000000000000000000000000000006000000000000F03F0A06222D4454FB21F93F0A06102D4454FB210940110D06636F656467650CFFFFFFFF04FFFFFFFF0CFFFFFFFF0C790000000C7A0000000C260000000C480000000B0C7B000000
310
04000000000CFFFFFFFF110D04656467650CFFFFFFFF04FFFFFFFF0CFFFFFFFF0C51000000062B2D4454FB21F93F0C4C000000061F2D4454FB2109400C470000000C7C0000000B0707756E6B6E6F776E110D06636F656467650CFFFFFFFF04FFFFFFFF0CFFFFFFFF0C410000000C270000000C2C0000000C550000000A0C4B
310
00000004000000000CFFFFFFFF110D06636F656467650CFFFFFFFF04FFFFFFFF0CFFFFFFFF0C270000000C410000000C790000000C7D0000000A0C4B00000004000000000CFFFFFFFF110D046C6F6F700CFFFFFFFF04FFFFFFFF0CFFFFFFFF0CFFFFFFFF0C410000000C7E000000110D067665727465780CFFFFFFFF04FFFF
310
FFFF0CFFFFFFFF0C2800000004000000000C7F000000110E0873747261696768740D0563757276650CFFFFFFFF04FFFFFFFF0CFFFFFFFF13000000000000000091FF385CD439004000000000000000001400000000000000000000000000000000CDCCCCCCCC0C73400A0600000000000000000A060A8542A15028843F110D
310
06636F656467650CFFFFFFFF04FFFFFFFF0CFFFFFFFF0C800000000C290000000C7A0000000C810000000A0C5000000004000000000CFFFFFFFF110D06636F656467650CFFFFFFFF04FFFFFFFF0CFFFFFFFF0C290000000C800000000C2B0000000C540000000A0C5000000004000000000CFFFFFFFF110D046C6F6F700CFF
310
FFFFFF04FFFFFFFF0CFFFFFFFF0CFFFFFFFF0C800000000C5F000000110D067665727465780CFFFFFFFF04FFFFFFFF0CFFFFFFFF0C4800000004000000000C82000000110E0873747261696768740D0563757276650CFFFFFFFF04FFFFFFFF0CFFFFFFFF1343FF385CD439004095188D862A3601BD00000000000008401400
310
000000000000000000000000000000CDCCCCCCCC0C73C00A0600000000000000000A060A8542A15028843F110D06636F656467650CFFFFFFFF04FFFFFFFF0CFFFFFFFF0C6B0000000C2B0000000C390000000C650000000B0C2D00000004000000000CFFFFFFFF110D04656467650CFFFFFFFF04FFFFFFFF0CFFFFFFFF0C2F
310
000000062F4678115E8487BC0C8300000006C7E92EAC1A35C13F0C2B0000000C840000000B0707756E6B6E6F776E110D04656467650CFFFFFFFF04FFFFFFFF0CFFFFFFFF0C4500000006B806AE816BE07ABC0C2E000000064D72F395D037C13F0C2C0000000C850000000B0707756E6B6E6F776E110D04666163650C860000
310
0004FFFFFFFF0CFFFFFFFF0CFFFFFFFF0C2D0000000C030000000CFFFFFFFF0C870000000B0B110D05706F696E740CFFFFFFFF04FFFFFFFF0CFFFFFFFF13000000000000000092FF385CD43900400000000000000840110D05706F696E740CFFFFFFFF04FFFFFFFF0CFFFFFFFF1327FF385CD4390040CDCCCCCCCC8F213D00
310
00000000000840110E0E696E74656765725F6174747269620E0B6E616D655F6174747269620E0367656E0D066174747269620CFFFFFFFF04FFFFFFFF0CFFFFFFFF0C310000000C0400000015010000001501000000150100000015020000000710524556495420454C454D454E5420494404EB1C0000110E0E696E74656765
310
725F6174747269620E0B6E616D655F6174747269620E0367656E0D066174747269620CFFFFFFFF04FFFFFFFF0C880000000C320000000C060000001501000000150100000015010000001502000000071152455649542043415445474F5259204944040C77E1FF110E0E696E74656765725F6174747269620E0B6E616D655F
310
6174747269620E0367656E0D066174747269620CFFFFFFFF04FFFFFFFF0C890000000C330000000C0B0000001501000000150100000015010000001502000000071452455649542053554243415445474F525920494404FFFFFFFF110E0E696E74656765725F6174747269620E0B6E616D655F6174747269620E0367656E0D
310
066174747269620CFFFFFFFF04FFFFFFFF0C8A0000000C340000000C12000000150100000015010000001501000000150200000007115245564954204D4154455249414C20494404421D0000110E0E696E74656765725F6174747269620E0B6E616D655F6174747269620E0367656E0D066174747269620CFFFFFFFF04FFFF
310
FFFF0C8B0000000C350000000C1E000000150100000015010000001501000000150200000007195245564954204D4154455249414C204F56455252494444454E0400000000110E0D737472696E675F6174747269620E0B6E616D655F6174747269620E0367656E0D066174747269620CFFFFFFFF04FFFFFFFF0C8C0000000C
310
FFFFFFFF0C360000001501000000150100000015010000001502000000070E5245564954204252455020544147073033333661663163372D313731372D346463302D613232392D6266356465336665373231642D30303030316365623A3231110D04666163650C8D00000004FFFFFFFF0CFFFFFFFF0C7E0000000C50000000
310
0C030000000CFFFFFFFF0C8E0000000B0B110D046C6F6F700CFFFFFFFF04FFFFFFFF0CFFFFFFFF0CFFFFFFFF0C8F0000000C36000000110E05706C616E650D07737572666163650CFFFFFFFF04FFFFFFFF0CFFFFFFFF131A00000000804640CECCC50DDFF1FF3F000000000000084014000000000000F03F00000000000000
310
0000000000000000001400000000000000000000000000000000CDCCCCCCCC0C73C00B0B0B0B0B110D06636F656467650CFFFFFFFF04FFFFFFFF0CFFFFFFFF0C690000000C3F0000000C430000000C760000000A0C3700000004000000000CFFFFFFFF110D06636F656467650CFFFFFFFF04FFFFFFFF0CFFFFFFFF0C900000
310
000C390000000C800000000C910000000A0C1F00000004000000000CFFFFFFFF110D06636F656467650CFFFFFFFF04FFFFFFFF0CFFFFFFFF0C390000000C900000000C920000000C930000000A0C1F00000004000000000CFFFFFFFF110D04656467650CFFFFFFFF04FFFFFFFF0CFFFFFFFF0C8300000006312D4454FB21F9
310
BF0C94000000060A2268FAF9B400BD0C530000000C950000000B0707756E6B6E6F776E110D06636F656467650CFFFFFFFF04FFFFFFFF0CFFFFFFFF0C3B0000000C3A0000000C960000000C970000000A0C1300000004000000000CFFFFFFFF110D06636F656467650CFFFFFFFF04FFFFFFFF0CFFFFFFFF0C8F0000000C9800
310
00000C3A0000000C680000000B0C6000000004000000000CFFFFFFFF110D04656467650CFFFFFFFF04FFFFFFFF0CFFFFFFFF0C990000000600000000000000000C6C000000060A8542A15028843F0C670000000C9A0000000B070774616E67656E74110D06636F656467650CFFFFFFFF04FFFFFFFF0CFFFFFFFF0C71000000
310
0C620000000C3B0000000C6A0000000B0C3700000004000000000CFFFFFFFF110D04656467650CFFFFFFFF04FFFFFFFF0CFFFFFFFF0C6D0000000600000000000000000C9B000000060A8542A15028843F0C690000000C9C0000000B070774616E67656E74110D06636F656467650CFFFFFFFF04FFFFFFFF0CFFFFFFFF0C3C
310
0000000C530000000C8F0000000C9D0000000B0C2D00000004000000000CFFFFFFFF110D067665727465780CFFFFFFFF04FFFFFFFF0CFFFFFFFF0C3D00000004000000000C9E000000110D067665727465780CFFFFFFFF04FFFFFFFF0CFFFFFFFF0C3D00000004010000000C9F000000110E07656C6C697073650D05637572
310
76650CFFFFFFFF04FFFFFFFF0CFFFFFFFF13F763988D037C45400264988D037C454000000000000008401400000000000000000000000000000000000000000000F03F142AC27926C73F00400000000000000000000000000000000006000000000000F03F0A0600000000000000000A06D92C4454FB21F93F110D06636F65
310
6467650CFFFFFFFF04FFFFFFFF0CFFFFFFFF0CA00000000C790000000C3E0000000C700000000B0C7B00000004000000000CFFFFFFFF110D04656467650CFFFFFFFF04FFFFFFFF0CFFFFFFFF0C7400000006102D4454FB2109C00C72000000060C2D4454FB21F9BF0C6F0000000CA10000000B0707756E6B6E6F776E110D06
310
636F656467650CFFFFFFFF04FFFFFFFF0CFFFFFFFF0C3F0000000C690000000CA00000000CA20000000A0C3700000004000000000CFFFFFFFF110D067665727465780CFFFFFFFF04FFFFFFFF0CFFFFFFFF0C4000000004000000000CA3000000110E0873747261696768740D0563757276650CFFFFFFFF04FFFFFFFF0CFFFF
310
FFFF135B4F6CF6988AFF3F250000000080464000000000000000001400000000000000000000000000000000CDCCCCCCCC0C73400A0600000000000000000A060A8542A15028843F110D067665727465780CFFFFFFFF04FFFFFFFF0CFFFFFFFF0C7000000004000000000CA4000000110E0873747261696768740D05637572
310
76650CFFFFFFFF04FFFFFFFF0CFFFFFFFF130000000000000000AB9D4C38AB83454000000000000008401400000000000000000000000000000000CDCCCCCCCC0C73C00A0600000000000000000A060A8542A15028843F110D04656467650CFFFFFFFF04FFFFFFFF0CFFFFFFFF0C6D000000060A8542A1502894BC0C440000
310
000618ED35A68037C13F0C430000000CA50000000B0707756E6B6E6F776E110D05706F696E740CFFFFFFFF04FFFFFFFF0CFFFFFFFF13354F6CF6988AFF3F25000000008046400000000000000840110D05706F696E740CFFFFFFFF04FFFFFFFF0CFFFFFFFF13CDCCCCCCCC0CD3BCAB9D4C38AB834540000000000000084011
310
0D06636F656467650CFFFFFFFF04FFFFFFFF0CFFFFFFFF0C6F0000000C470000000C4A0000000C7D0000000B0C7B00000004000000000CFFFFFFFF110D06636F656467650CFFFFFFFF04FFFFFFFF0CFFFFFFFF0C470000000CA60000000C4E0000000C810000000B0C7B00000004000000000CFFFFFFFF110D046C6F6F700C
310
FFFFFFFF04FFFFFFFF0CFFFFFFFF0CFFFFFFFF0C6F0000000CA7000000110E07656C6C697073650D0563757276650CFFFFFFFF04FFFFFFFF0CFFFFFFFF1354FF385CD439004092FF385CD439004000000000000000001400000000000000000000000000000000000000000000F0BF1454FF385CD4390040CDCCCCCCCCF4EE
310
3C000000000000000006000000000000F03F0A062B2D4454FB21F93F0A061F2D4454FB210940110D04656467650CFFFFFFFF04FFFFFFFF0CFFFFFFFF0C4C00000006B806AE816BE03ABC0C74000000064D72F395D037C13F0C790000000CA80000000B0707756E6B6E6F776E110D04666163650CA900000004FFFFFFFF0CFF
310
FFFFFF0CA70000000C4B0000000C030000000CFFFFFFFF0CAA0000000B0B110D05706F696E740CFFFFFFFF04FFFFFFFF0CFFFFFFFF13000000000000000099FF385CD43900400000000000000000110D06636F656467650CFFFFFFFF04FFFFFFFF0CFFFFFFFF0C4F0000000C4E0000000C630000000C910000000B0C500000
310
0004000000000CFFFFFFFF110D04656467650CFFFFFFFF04FFFFFFFF0CFFFFFFFF0CAB00000006B806AE816BE08A3C0C5100000006C8E92EAC1A35C13F0C7A0000000CAC0000000B0707756E6B6E6F776E110D05706F696E740CFFFFFFFF04FFFFFFFF0CFFFFFFFF1349FF385CD43900409D188D862A3601BD000000000000
310
0000110D067665727465780CFFFFFFFF04FFFFFFFF0CFFFFFFFF0C6500000004000000000CAD000000110E0873747261696768740D0563757276650CFFFFFFFF04FFFFFFFF0CFFFFFFFF1343FF385CD439004096188D862A3601BD000000000000084014CDCCCCCCCC0C73409EE77A380E3574BD00000000000000000A062F
310
4678115E8487BC0A06C7E92EAC1A35C13F110E0873747261696768740D0563757276650CFFFFFFFF04FFFFFFFF0CFFFFFFFF130000000000000000AA9D4C38AB8345400000000000000840140000000000000000CDCCCCCCCC0C73C000000000000000000A06B806AE816BE07ABC0A064D72F395D037C13F110E0D73747269
310
6E675F6174747269620E0B6E616D655F6174747269620E0367656E0D066174747269620CFFFFFFFF04FFFFFFFF0CAE0000000CFFFFFFFF0C560000001501000000150100000015010000001502000000070E5245564954204252455020544147072F33333661663163372D313731372D346463302D613232392D6266356465
310
336665373231642D30303030316365623A30110E05706C616E650D07737572666163650CFFFFFFFF04FFFFFFFF0CFFFFFFFF130000000000000000000000000000000000000000000008401400000000000000000000000000000000000000000000F03F140000000000000000CDCCCCCCCC0C73C000000000000000000B0B
310
0B0B0B110E0E696E74656765725F6174747269620E0B6E616D655F6174747269620E0367656E0D066174747269620CFFFFFFFF04FFFFFFFF0CFFFFFFFF0C5A0000000C0600000015010000001501000000150100000015020000000710524556495420454C454D454E5420494404EB1C0000110E0E696E74656765725F6174
310
747269620E0B6E616D655F6174747269620E0367656E0D066174747269620CFFFFFFFF04FFFFFFFF0CAF0000000C5B0000000C0B0000001501000000150100000015010000001502000000071152455649542043415445474F5259204944040C77E1FF110E0E696E74656765725F6174747269620E0B6E616D655F61747472
310
69620E0367656E0D066174747269620CFFFFFFFF04FFFFFFFF0CB00000000C5C0000000C120000001501000000150100000015010000001502000000071452455649542053554243415445474F525920494404FFFFFFFF110E0E696E74656765725F6174747269620E0B6E616D655F6174747269620E0367656E0D06617474
310
7269620CFFFFFFFF04FFFFFFFF0CB10000000C5D0000000C1E000000150100000015010000001501000000150200000007115245564954204D4154455249414C20494404421D0000110E0E696E74656765725F6174747269620E0B6E616D655F6174747269620E0367656E0D066174747269620CFFFFFFFF04FFFFFFFF0CB2
310
0000000C5E0000000C36000000150100000015010000001501000000150200000007195245564954204D4154455249414C204F56455252494444454E0400000000110E0D737472696E675F6174747269620E0B6E616D655F6174747269620E0367656E0D066174747269620CFFFFFFFF04FFFFFFFF0CB30000000CFFFFFFFF
310
0C5F0000001501000000150100000015010000001502000000070E5245564954204252455020544147073033333661663163372D313731372D346463302D613232392D6266356465336665373231642D30303030316365623A3139110E05706C616E650D07737572666163650CFFFFFFFF04FFFFFFFF0CFFFFFFFF13000000
310
00000000000000000000000000000000000000084014708BBAD4D2F8F0BC000000000000F0BF00000000000000801400000000000000000000000000000000CDCCCCCCCC0C73C00B0B0B0B0B110D06636F656467650CFFFFFFFF04FFFFFFFF0CFFFFFFFF0C920000000C670000000C6B0000000C9D0000000A0C6000000004
310
000000000CFFFFFFFF110D06636F656467650CFFFFFFFF04FFFFFFFF0CFFFFFFFF0C640000000C630000000CA60000000CB40000000A0C1F00000004000000000CFFFFFFFF110D04656467650CFFFFFFFF04FFFFFFFF0CFFFFFFFF0CAB0000000600000000000000000C83000000060A8542A15028843F0C800000000CB500
310
00000B070774616E67656E74110D06636F656467650CFFFFFFFF04FFFFFFFF0CFFFFFFFF0C980000000C8F0000000C640000000C930000000B0C6000000004000000000CFFFFFFFF110D04656467650CFFFFFFFF04FFFFFFFF0CFFFFFFFF0C940000000600000000000000000CB6000000060A8542A15028843F0C92000000
310
0CB70000000B070774616E67656E74110D067665727465780CFFFFFFFF04FFFFFFFF0CFFFFFFFF0C6500000004010000000CB8000000110E07656C6C697073650D0563757276650CFFFFFFFF04FFFFFFFF0CFFFFFFFF1381D19107718045401DD3C50DDFF1FF3F000000000000084014000000000000000000000000000000
310
00000000000000F03F14E3D5C50DDFF1FF3F343333333393ECBC000000000000000006000000000000F03F0A06312D4454FB21F9BF0A060A2268FAF9B400BD110D06636F656467650CFFFFFFFF04FFFFFFFF0CFFFFFFFF0CB90000000CA00000000C660000000C970000000B0C7B00000004000000000CFFFFFFFF110D0465
310
6467650CFFFFFFFF04FFFFFFFF0CFFFFFFFF0C9B00000006092D4454FB21F9BF0C9900000006BBC2595B6682FF3C0C960000000CBA0000000B0707756E6B6E6F776E110D06636F656467650CFFFFFFFF04FFFFFFFF0CFFFFFFFF0C670000000C920000000CB90000000CBB0000000A0C6000000004000000000CFFFFFFFF11
310
0D067665727465780CFFFFFFFF04FFFFFFFF0CFFFFFFFF0C6800000004000000000CBC000000110E0873747261696768740D0563757276650CFFFFFFFF04FFFFFFFF0CFFFFFFFF131A00000000804640FE63988D037C454000000000000000001400000000000000000000000000000000CDCCCCCCCC0C73400A0600000000
310
000000000A060A8542A15028843F110D067665727465780CFFFFFFFF04FFFFFFFF0CFFFFFFFF0C9700000004000000000CBD000000110E0873747261696768740D0563757276650CFFFFFFFF04FFFFFFFF0CFFFFFFFF13F863988D037C45402500000000804640000000000000084014000000000000000000000000000000
310
00CDCCCCCCCC0C73C00A0600000000000000000A060A8542A15028843F110D04656467650CFFFFFFFF04FFFFFFFF0CFFFFFFFF0C9400000006881962869821D43C0C6C00000006CB6471BCCA34C13F0C6B0000000CBE0000000B0707756E6B6E6F776E110D05706F696E740CFFFFFFFF04FFFFFFFF0CFFFFFFFF131A000000
310
008046400264988D037C45400000000000000840110D05706F696E740CFFFFFFFF04FFFFFFFF0CFFFFFFFF13FB63988D037C454025000000008046400000000000000840110D06636F656467650CFFFFFFFF04FFFFFFFF0CFFFFFFFF0C960000000C6F0000000C710000000CA20000000B0C7B00000004000000000CFFFFFF
310
FF110E07656C6C697073650D0563757276650CFFFFFFFF04FFFFFFFF0CFFFFFFFF13484F6CF6988AFF3FAA9D4C38AB83454000000000000000001400000000000000000000000000000000000000000000F0BF144D4F6CF6988AFF3F0000000000000000000000000000000006000000000000F03F0A06102D4454FB2109C0
310
0A060C2D4454FB21F9BF110D04656467650CFFFFFFFF04FFFFFFFF0CFFFFFFFF0C720000000684EC203BC80E823C0C9B0000000618ED35A68037C13F0CA00000000CBF0000000B0707756E6B6E6F776E110D05706F696E740CFFFFFFFF04FFFFFFFF0CFFFFFFFF13604F6CF6988AFF3F250000000080464000000000000000
310
00110D05706F696E740CFFFFFFFF04FFFFFFFF0CFFFFFFFF13CDCCCCCCCC0CD3BCAB9D4C38AB8345400000000000000000110E0873747261696768740D0563757276650CFFFFFFFF04FFFFFFFF0CFFFFFFFF13F863988D037C45402500000000804640000000000000084014CDCCCCCCCC0C73C00000000000000000000000
310
00000000000A060A8542A1502894BC0A0618ED35A68037C13F110D06636F656467650CFFFFFFFF04FFFFFFFF0CFFFFFFFF0C7A0000000CB90000000C900000000CB40000000B0C7B00000004000000000CFFFFFFFF110D04666163650CC000000004FFFFFFFF0CFFFFFFFF0C560000000C7B0000000C030000000CFFFFFFFF
310
0CC10000000B0B110E0873747261696768740D0563757276650CFFFFFFFF04FFFFFFFF0CFFFFFFFF1300000000000000009AFF385CD43900400000000000000000140000000000000000CDCCCCCCCC0C734000000000000000000A06B806AE816BE03ABC0A064D72F395D037C13F110E0D737472696E675F6174747269620E
310
0B6E616D655F6174747269620E0367656E0D066174747269620CFFFFFFFF04FFFFFFFF0CC20000000CFFFFFFFF0C7E0000001501000000150100000015010000001502000000070E5245564954204252455020544147073033333661663163372D313731372D346463302D613232392D6266356465336665373231642D3030
310
3030316365623A3136110E05706C616E650D07737572666163650CFFFFFFFF04FFFFFFFF0CFFFFFFFF130000000000000000AA9D4C38AB834540000000000000084014000000000000F0BF000000000000008000000000000000801400000000000000000000000000000000CDCCCCCCCC0C73C00B0B0B0B0B110D06766572
310
7465780CFFFFFFFF04FFFFFFFF0CFFFFFFFF0C9100000004000000000CC3000000110E0873747261696768740D0563757276650CFFFFFFFF04FFFFFFFF0CFFFFFFFF1381D191077180454033333333D3CE46BD000000000000000014CDCCCCCCCC0C73C09EE77A380E35743D00000000000000000A06B806AE816BE08A3C0A
310
06C8E92EAC1A35C13F110D05706F696E740CFFFFFFFF04FFFFFFFF0CFFFFFFFF137FD191077180454033333333D3CE46BD0000000000000840110E0E696E74656765725F6174747269620E0B6E616D655F6174747269620E0367656E0D066174747269620CFFFFFFFF04FFFFFFFF0CC40000000C860000000C560000001501
310
00000015010000001501000000150200000007195245564954204D4154455249414C204F56455252494444454E0400000000110E0E696E74656765725F6174747269620E0B6E616D655F6174747269620E0367656E0D066174747269620CFFFFFFFF04FFFFFFFF0CFFFFFFFF0C890000000C0B000000150100000015010000
310
00150100000015020000000710524556495420454C454D454E5420494404EB1C0000110E0E696E74656765725F6174747269620E0B6E616D655F6174747269620E0367656E0D066174747269620CFFFFFFFF04FFFFFFFF0CC50000000C8A0000000C1200000015010000001501000000150100000015020000000711524556
310
49542043415445474F5259204944040C77E1FF110E0E696E74656765725F6174747269620E0B6E616D655F6174747269620E0367656E0D066174747269620CFFFFFFFF04FFFFFFFF0CC60000000C8B0000000C1E0000001501000000150100000015010000001502000000071452455649542053554243415445474F525920
310
494404FFFFFFFF110E0E696E74656765725F6174747269620E0B6E616D655F6174747269620E0367656E0D066174747269620CFFFFFFFF04FFFFFFFF0CC70000000C8C0000000C36000000150100000015010000001501000000150200000007115245564954204D4154455249414C20494404421D0000110E0E696E746567
310
65725F6174747269620E0B6E616D655F6174747269620E0367656E0D066174747269620CFFFFFFFF04FFFFFFFF0CC80000000C8D0000000C5F000000150100000015010000001501000000150200000007195245564954204D4154455249414C204F56455252494444454E0400000000110D04656467650CFFFFFFFF04FFFF
310
FFFF0CFFFFFFFF0CB600000006B7C74F7BE90D493D0CAB00000006312D4454FB21F93F0CA60000000CC90000000B0707756E6B6E6F776E110E0873747261696768740D0563757276650CFFFFFFFF04FFFFFFFF0CFFFFFFFF137ED191077180454030333333D3CE46BD00000000000000001400000000000000000000000000
310
000000CDCCCCCCCC0C73400A0600000000000000000A060A8542A15028843F110D067665727465780CFFFFFFFF04FFFFFFFF0CFFFFFFFF0CB400000004000000000CCA000000110E0873747261696768740D0563757276650CFFFFFFFF04FFFFFFFF0CFFFFFFFF131A00000000804640CECCC50DDFF1FF3F00000000000008
310
401400000000000000000000000000000000CDCCCCCCCC0C73C00A0600000000000000000A060A8542A15028843F110D05706F696E740CFFFFFFFF04FFFFFFFF0CFFFFFFFF133100000000804640CCD2C50DDFF1FF3F0000000000000840110D06636F656467650CFFFFFFFF04FFFFFFFF0CFFFFFFFF0CA60000000C960000
310
000C980000000CBB0000000B0C7B00000004000000000CFFFFFFFF110E07656C6C697073650D0563757276650CFFFFFFFF04FFFFFFFF0CFFFFFFFF13F763988D037C45400264988D037C454000000000000000001400000000000000000000000000000000000000000000F0BF142AC27926C73F0040000000000000000000
310
0000000000000006000000000000F03F0A06092D4454FB21F9BF0A06BBC2595B6682FF3C110D04656467650CFFFFFFFF04FFFFFFFF0CFFFFFFFF0C9900000006B806AE816BE08A3C0CB600000006CB6471BCCA34C13F0CB90000000CCB0000000B0707756E6B6E6F776E110D05706F696E740CFFFFFFFF04FFFFFFFF0CFFFF
310
FFFF131A000000008046400064988D037C45400000000000000000110D05706F696E740CFFFFFFFF04FFFFFFFF0CFFFFFFFF13F863988D037C454025000000008046400000000000000000110E0873747261696768740D0563757276650CFFFFFFFF04FFFFFFFF0CFFFFFFFF131A00000000804640CECCC50DDFF1FF3F0000
310
000000000840140000000000000000CDCCCCCCCC0C734000000000000000000A06881962869821D43C0A06CB6471BCCA34C13F110E0873747261696768740D0563757276650CFFFFFFFF04FFFFFFFF0CFFFFFFFF13354F6CF6988AFF3F2500000000804640000000000000000014CDCCCCCCCC0C7340000000000000000000
310
000000000000000A0684EC203BC80E823C0A0618ED35A68037C13F110E0D737472696E675F6174747269620E0B6E616D655F6174747269620E0367656E0D066174747269620CFFFFFFFF04FFFFFFFF0CCC0000000CFFFFFFFF0CA70000001501000000150100000015010000001502000000070E5245564954204252455020
310
544147072F33333661663163372D313731372D346463302D613232392D6266356465336665373231642D30303030316365623A38110E05706C616E650D07737572666163650CFFFFFFFF04FFFFFFFF0CFFFFFFFF13000000000000000000000000000000000000000000000000140000000000000000000000000000000000
310
0000000000F0BF140000000000000000CDCCCCCCCC0C734000000000000000000B0B0B0B0B110E0E696E74656765725F6174747269620E0B6E616D655F6174747269620E0367656E0D066174747269620CFFFFFFFF04FFFFFFFF0CCD0000000CA90000000C7E00000015010000001501000000150100000015020000000719
310
5245564954204D4154455249414C204F56455252494444454E0400000000110D05706F696E740CFFFFFFFF04FFFFFFFF0CFFFFFFFF137FD191077180454033333333D3CE46BD0000000000000000110E0E696E74656765725F6174747269620E0B6E616D655F6174747269620E0367656E0D066174747269620CFFFFFFFF04
310
FFFFFFFF0CCE0000000CAE0000000C56000000150100000015010000001501000000150200000007115245564954204D4154455249414C20494404421D0000110E0E696E74656765725F6174747269620E0B6E616D655F6174747269620E0367656E0D066174747269620CFFFFFFFF04FFFFFFFF0CFFFFFFFF0CB00000000C
310
1200000015010000001501000000150100000015020000000710524556495420454C454D454E5420494404EB1C0000110E0E696E74656765725F6174747269620E0B6E616D655F6174747269620E0367656E0D066174747269620CFFFFFFFF04FFFFFFFF0CCF0000000CB10000000C1E000000150100000015010000001501
310
0000001502000000071152455649542043415445474F5259204944040C77E1FF110E0E696E74656765725F6174747269620E0B6E616D655F6174747269620E0367656E0D066174747269620CFFFFFFFF04FFFFFFFF0CD00000000CB20000000C36000000150100000015010000001501000000150200000007145245564954
310
2053554243415445474F525920494404FFFFFFFF110E0E696E74656765725F6174747269620E0B6E616D655F6174747269620E0367656E0D066174747269620CFFFFFFFF04FFFFFFFF0CD10000000CB30000000C5F000000150100000015010000001501000000150200000007115245564954204D4154455249414C204944
310
04421D0000110E07656C6C697073650D0563757276650CFFFFFFFF04FFFFFFFF0CFFFFFFFF1381D19107718045401DD3C50DDFF1FF3F00000000000000001400000000000000000000000000000000000000000000F0BF14E3D5C50DDFF1FF3F343333333393ECBC000000000000000006000000000000F03F0A06B7C74F7B
310
E90D493D0A06312D4454FB21F93F110D05706F696E740CFFFFFFFF04FFFFFFFF0CFFFFFFFF131A00000000804640CECCC50DDFF1FF3F0000000000000000110E0873747261696768740D0563757276650CFFFFFFFF04FFFFFFFF0CFFFFFFFF131A000000008046400264988D037C4540000000000000000014000000000000
310
0000CDCCCCCCCC0C73C000000000000000000A06B806AE816BE08A3C0A06CB6471BCCA34C13F110E0E696E74656765725F6174747269620E0B6E616D655F6174747269620E0367656E0D066174747269620CFFFFFFFF04FFFFFFFF0CD20000000CC00000000CA7000000150100000015010000001501000000150200000007
310
195245564954204D4154455249414C204F56455252494444454E0400000000110E0E696E74656765725F6174747269620E0B6E616D655F6174747269620E0367656E0D066174747269620CFFFFFFFF04FFFFFFFF0CD30000000CC20000000C7E00000015010000001501000000150100000015020000000711524556495420
310
4D4154455249414C20494404421D0000110E0E696E74656765725F6174747269620E0B6E616D655F6174747269620E0367656E0D066174747269620CFFFFFFFF04FFFFFFFF0CD40000000CC40000000C560000001501000000150100000015010000001502000000071452455649542053554243415445474F525920494404
310
FFFFFFFF110E0E696E74656765725F6174747269620E0B6E616D655F6174747269620E0367656E0D066174747269620CFFFFFFFF04FFFFFFFF0CFFFFFFFF0CC60000000C1E00000015010000001501000000150100000015020000000710524556495420454C454D454E5420494404EB1C0000110E0E696E74656765725F61
310
74747269620E0B6E616D655F6174747269620E0367656E0D066174747269620CFFFFFFFF04FFFFFFFF0CD50000000CC70000000C360000001501000000150100000015010000001502000000071152455649542043415445474F5259204944040C77E1FF110E0E696E74656765725F6174747269620E0B6E616D655F617474
310
7269620E0367656E0D066174747269620CFFFFFFFF04FFFFFFFF0CD60000000CC80000000C5F0000001501000000150100000015010000001502000000071452455649542053554243415445474F525920494404FFFFFFFF110E0E696E74656765725F6174747269620E0B6E616D655F6174747269620E0367656E0D066174
310
747269620CFFFFFFFF04FFFFFFFF0CD70000000CCC0000000CA7000000150100000015010000001501000000150200000007115245564954204D4154455249414C20494404421D0000110E0E696E74656765725F6174747269620E0B6E616D655F6174747269620E0367656E0D066174747269620CFFFFFFFF04FFFFFFFF0C
310
D80000000CCD0000000C7E0000001501000000150100000015010000001502000000071452455649542053554243415445474F525920494404FFFFFFFF110E0E696E74656765725F6174747269620E0B6E616D655F6174747269620E0367656E0D066174747269620CFFFFFFFF04FFFFFFFF0CD90000000CCE0000000C5600
310
00001501000000150100000015010000001502000000071152455649542043415445474F5259204944040C77E1FF110E0E696E74656765725F6174747269620E0B6E616D655F6174747269620E0367656E0D066174747269620CFFFFFFFF04FFFFFFFF0CFFFFFFFF0CD00000000C3600000015010000001501000000150100
310
000015020000000710524556495420454C454D454E5420494404EB1C0000110E0E696E74656765725F6174747269620E0B6E616D655F6174747269620E0367656E0D066174747269620CFFFFFFFF04FFFFFFFF0CDA0000000CD10000000C5F0000001501000000150100000015010000001502000000071152455649542043
310
415445474F5259204944040C77E1FF110E0E696E74656765725F6174747269620E0B6E616D655F6174747269620E0367656E0D066174747269620CFFFFFFFF04FFFFFFFF0CDB0000000CD20000000CA70000001501000000150100000015010000001502000000071452455649542053554243415445474F525920494404FF
310
FFFFFF110E0E696E74656765725F6174747269620E0B6E616D655F6174747269620E0367656E0D066174747269620CFFFFFFFF04FFFFFFFF0CDC0000000CD30000000C7E0000001501000000150100000015010000001502000000071152455649542043415445474F5259204944040C77E1FF110E0E696E74656765725F61
310
74747269620E0B6E616D655F6174747269620E0367656E0D066174747269620CFFFFFFFF04FFFFFFFF0CFFFFFFFF0CD40000000C5600000015010000001501000000150100000015020000000710524556495420454C454D454E5420494404EB1C0000110E0E696E74656765725F6174747269620E0B6E616D655F61747472
310
69620E0367656E0D066174747269620CFFFFFFFF04FFFFFFFF0CFFFFFFFF0CD60000000C5F00000015010000001501000000150100000015020000000710524556495420454C454D454E5420494404EB1C0000110E0E696E74656765725F6174747269620E0B6E616D655F6174747269620E0367656E0D066174747269620C
310
FFFFFFFF04FFFFFFFF0CDD0000000CD70000000CA70000001501000000150100000015010000001502000000071152455649542043415445474F5259204944040C77E1FF110E0E696E74656765725F6174747269620E0B6E616D655F6174747269620E0367656E0D066174747269620CFFFFFFFF04FFFFFFFF0CFFFFFFFF0C
310
D80000000C7E00000015010000001501000000150100000015020000000710524556495420454C454D454E5420494404EB1C0000110E0E696E74656765725F6174747269620E0B6E616D655F6174747269620E0367656E0D066174747269620CFFFFFFFF04FFFFFFFF0CFFFFFFFF0CDB0000000CA700000015010000001501
310
000000150100000015020000000710524556495420454C454D454E5420494404EB1C0000110E03456E640E026F660E0341534D0D0464617461
  0
ACDSRECORD
 90
        0
  2
AcDbDs::ID
280
    10
320
8E
  2
ASM_Data
280
    15
 94
    10034
310
414349532042696E61727946696C652855000000000000020000000C00000007104175746F6465736B204175746F434144071341534D203232332E302E312E31393330204E540718536174204F63742032332031353A31383A3333203230323106000000000000F03F068DEDB5A0F7C6B03E06BBBDD7D9DF7CDB3D0D096173
310
6D6865616465720CFFFFFFFF04FFFFFFFF070C3232332E302E312E31393330110D04626F64790CFFFFFFFF04FFFFFFFF0CFFFFFFFF0C020000000CFFFFFFFF0CFFFFFFFF110D046C756D700CFFFFFFFF04FFFFFFFF0CFFFFFFFF0CFFFFFFFF0C030000000C01000000110D057368656C6C0CFFFFFFFF04FFFFFFFF0CFFFFFF
310
FF0CFFFFFFFF0CFFFFFFFF0C040000000CFFFFFFFF0C02000000110D04666163650C0500000004FFFFFFFF0CFFFFFFFF0C060000000C070000000C030000000CFFFFFFFF0C080000000B0B110E0D737472696E675F6174747269620E0B6E616D655F6174747269620E0367656E0D066174747269620CFFFFFFFF04FFFFFFFF
310
0C090000000CFFFFFFFF0C040000001501000000150100000015010000001502000000070E5245564954204252455020544147073033333661663163372D313731372D346463302D613232392D6266356465336665373231642D30303030316439393A3133110D04666163650C0A00000004FFFFFFFF0CFFFFFFFF0C0B0000
310
000C0C0000000C030000000CFFFFFFFF0C0D0000000B0B110D046C6F6F700CFFFFFFFF04FFFFFFFF0CFFFFFFFF0CFFFFFFFF0C0E0000000C04000000110E05706C616E650D07737572666163650CFFFFFFFF04FFFFFFFF0CFFFFFFFF139F00000000C044401300000000404440000000000000000014000000000000000000
310
0000000000F03F00000000000000001400000000000000000000000000000000CDCCCCCCCC0C73C00B0B0B0B0B110E0E696E74656765725F6174747269620E0B6E616D655F6174747269620E0367656E0D066174747269620CFFFFFFFF04FFFFFFFF0C0F0000000C050000000C040000001501000000150100000015010000
310
00150200000007195245564954204D4154455249414C204F56455252494444454E0400000000110E0D737472696E675F6174747269620E0B6E616D655F6174747269620E0367656E0D066174747269620CFFFFFFFF04FFFFFFFF0C100000000CFFFFFFFF0C060000001501000000150100000015010000001502000000070E
310
5245564954204252455020544147072F33333661663163372D313731372D346463302D613232392D6266356465336665373231642D30303030316439393A39110D04666163650C1100000004FFFFFFFF0CFFFFFFFF0C120000000C130000000C030000000CFFFFFFFF0C140000000B0B110D046C6F6F700CFFFFFFFF04FFFF
310
FFFF0CFFFFFFFF0CFFFFFFFF0C150000000C06000000110E05706C616E650D07737572666163650CFFFFFFFF04FFFFFFFF0CFFFFFFFF139F00000000C044406900000000001240000000000000000014000000000000F03F000000000000000000000000000000001400000000000000000000000000000000CDCCCCCCCC0C
310
73C00B0B0B0B0B110D06636F656467650CFFFFFFFF04FFFFFFFF0CFFFFFFFF0C160000000C170000000C180000000C190000000A0C0700000004000000000CFFFFFFFF110E0E696E74656765725F6174747269620E0B6E616D655F6174747269620E0367656E0D066174747269620CFFFFFFFF04FFFFFFFF0C1A0000000C09
310
0000000C04000000150100000015010000001501000000150200000007115245564954204D4154455249414C20494404421D0000110E0E696E74656765725F6174747269620E0B6E616D655F6174747269620E0367656E0D066174747269620CFFFFFFFF04FFFFFFFF0C1B0000000C0A0000000C0600000015010000001501
310
0000001501000000150200000007195245564954204D4154455249414C204F56455252494444454E0400000000110E0D737472696E675F6174747269620E0B6E616D655F6174747269620E0367656E0D066174747269620CFFFFFFFF04FFFFFFFF0C1C0000000CFFFFFFFF0C0B000000150100000015010000001501000000
310
1502000000070E5245564954204252455020544147072F33333661663163372D313731372D346463302D613232392D6266356465336665373231642D30303030316439393A35110D04666163650C1D00000004FFFFFFFF0CFFFFFFFF0C1E0000000C1F0000000C030000000CFFFFFFFF0C200000000B0B110D046C6F6F700C
310
FFFFFFFF04FFFFFFFF0CFFFFFFFF0CFFFFFFFF0C210000000C0B000000110E05706C616E650D07737572666163650CFFFFFFFF04FFFFFFFF0CFFFFFFFF13A700000000001240680000000000124000000000000000001421878EE1C579803C000000000000F0BF000000000000000014000000000000000000000000000000
310
00CDCCCCCCCC0C73C00B0B0B0B0B110D06636F656467650CFFFFFFFF04FFFFFFFF0CFFFFFFFF0C220000000C230000000C240000000C250000000A0C0C00000004000000000CFFFFFFFF110D06636F656467650CFFFFFFFF04FFFFFFFF0CFFFFFFFF0C260000000C0E0000000C230000000C270000000A0C07000000040000
310
00000CFFFFFFFF110D06636F656467650CFFFFFFFF04FFFFFFFF0CFFFFFFFF0C0E0000000C260000000C280000000C290000000A0C0700000004000000000CFFFFFFFF110D06636F656467650CFFFFFFFF04FFFFFFFF0CFFFFFFFF0C2A0000000C240000000C0E0000000C190000000B0C2B00000004000000000CFFFFFFFF
310
110D04656467650CFFFFFFFF04FFFFFFFF0CFFFFFFFF0C2C0000000600000000000000000C2D00000006AC38F14D7C13BF3F0C180000000C2E0000000B0707756E6B6E6F776E110E0E696E74656765725F6174747269620E0B6E616D655F6174747269620E0367656E0D066174747269620CFFFFFFFF04FFFFFFFF0C2F0000
310
000C0F0000000C040000001501000000150100000015010000001502000000071452455649542053554243415445474F525920494404FFFFFFFF110E0E696E74656765725F6174747269620E0B6E616D655F6174747269620E0367656E0D066174747269620CFFFFFFFF04FFFFFFFF0C300000000C100000000C0600000015
310
0100000015010000001501000000150200000007115245564954204D4154455249414C20494404421D0000110E0E696E74656765725F6174747269620E0B6E616D655F6174747269620E0367656E0D066174747269620CFFFFFFFF04FFFFFFFF0C310000000C110000000C0B00000015010000001501000000150100000015
310
0200000007195245564954204D4154455249414C204F56455252494444454E0400000000110E0D737472696E675F6174747269620E0B6E616D655F6174747269620E0367656E0D066174747269620CFFFFFFFF04FFFFFFFF0C320000000CFFFFFFFF0C120000001501000000150100000015010000001502000000070E5245
310
564954204252455020544147072F33333661663163372D313731372D346463302D613232392D6266356465336665373231642D30303030316439393A32110D04666163650C3300000004FFFFFFFF0CFFFFFFFF0C340000000C2B0000000C030000000CFFFFFFFF0C350000000B0B110D046C6F6F700CFFFFFFFF04FFFFFFFF
310
0CFFFFFFFF0CFFFFFFFF0C360000000C12000000110E05706C616E650D07737572666163650CFFFFFFFF04FFFFFFFF0CFFFFFFFF13A7000000000012401300000000404440000000000000000014000000000000F0BF000000000000008000000000000000801400000000000000000000000000000000CDCCCCCCCC0C73C0
310
0B0B0B0B0B110D06636F656467650CFFFFFFFF04FFFFFFFF0CFFFFFFFF0C370000000C380000000C390000000C3A0000000A0C1300000004000000000CFFFFFFFF110D06636F656467650CFFFFFFFF04FFFFFFFF0CFFFFFFFF0C3B0000000C150000000C380000000C3C0000000A0C0C00000004000000000CFFFFFFFF110D
310
06636F656467650CFFFFFFFF04FFFFFFFF0CFFFFFFFF0C150000000C3B0000000C160000000C270000000B0C0C00000004000000000CFFFFFFFF110D06636F656467650CFFFFFFFF04FFFFFFFF0CFFFFFFFF0C180000000C390000000C150000000C250000000B0C2B00000004000000000CFFFFFFFF110D04656467650CFF
310
FFFFFF04FFFFFFFF0CFFFFFFFF0C3D0000000600000000000000000C2C0000000699C7E3F1783CBE3F0C240000000C3E0000000B0707756E6B6E6F776E110D06636F656467650CFFFFFFFF04FFFFFFFF0CFFFFFFFF0C170000000C160000000C3F0000000C400000000A0C0700000004000000000CFFFFFFFF110D04656467
310
650CFFFFFFFF04FFFFFFFF0CFFFFFFFF0C410000000600000000000000000C2C000000060A8542A15028A43F0C230000000C420000000B0707756E6B6E6F776E110D06636F656467650CFFFFFFFF04FFFFFFFF0CFFFFFFFF0C430000000C360000000C170000000C290000000B0C1F00000004000000000CFFFFFFFF110D04
310
656467650CFFFFFFFF04FFFFFFFF0CFFFFFFFF0C2D0000000600000000000000000C44000000060A8542A15028A43F0C280000000C450000000B0707756E6B6E6F776E110D06636F656467650CFFFFFFFF04FFFFFFFF0CFFFFFFFF0C390000000C180000000C360000000C460000000B0C2B00000004000000000CFFFFFFFF
310
110D046C6F6F700CFFFFFFFF04FFFFFFFF0CFFFFFFFF0CFFFFFFFF0C2A0000000C1E000000110D067665727465780CFFFFFFFF04FFFFFFFF0CFFFFFFFF0C1900000004000000000C47000000110D067665727465780CFFFFFFFF04FFFFFFFF0CFFFFFFFF0C1900000004010000000C48000000110E0873747261696768740D
310
0563757276650CFFFFFFFF04FFFFFFFF0CFFFFFFFF139F00000000C044401300000000404440000000000000000014CDCCCCCCCC0C73C0000000000000000000000000000000000A0600000000000000000A06AC38F14D7C13BF3F110E0E696E74656765725F6174747269620E0B6E616D655F6174747269620E0367656E0D
310
066174747269620CFFFFFFFF04FFFFFFFF0C490000000C1A0000000C040000001501000000150100000015010000001502000000071152455649542043415445474F5259204944040C77E1FF110E0E696E74656765725F6174747269620E0B6E616D655F6174747269620E0367656E0D066174747269620CFFFFFFFF04FFFF
310
FFFF0C4A0000000C1B0000000C060000001501000000150100000015010000001502000000071452455649542053554243415445474F525920494404FFFFFFFF110E0E696E74656765725F6174747269620E0B6E616D655F6174747269620E0367656E0D066174747269620CFFFFFFFF04FFFFFFFF0C4B0000000C1C000000
310
0C0B000000150100000015010000001501000000150200000007115245564954204D4154455249414C20494404421D0000110E0E696E74656765725F6174747269620E0B6E616D655F6174747269620E0367656E0D066174747269620CFFFFFFFF04FFFFFFFF0C4C0000000C1D0000000C1200000015010000001501000000
310
1501000000150200000007195245564954204D4154455249414C204F56455252494444454E0400000000110E0D737472696E675F6174747269620E0B6E616D655F6174747269620E0367656E0D066174747269620CFFFFFFFF04FFFFFFFF0C4D0000000CFFFFFFFF0C1E000000150100000015010000001501000000150200
310
0000070E5245564954204252455020544147072F33333661663163372D313731372D346463302D613232392D6266356465336665373231642D30303030316439393A31110D04666163650C4E00000004FFFFFFFF0CFFFFFFFF0CFFFFFFFF0C4F0000000C030000000CFFFFFFFF0C500000000B0B110E05706C616E650D0773
310
7572666163650CFFFFFFFF04FFFFFFFF0CFFFFFFFF13A700000000001240690000000000124000000000000000001400000000000000000000000000000000000000000000F03F140000000000000000CDCCCCCCCC0C73C000000000000000000B0B0B0B0B110D06636F656467650CFFFFFFFF04FFFFFFFF0CFFFFFFFF0C28
310
0000000C510000000C2A0000000C460000000A0C1F00000004000000000CFFFFFFFF110D06636F656467650CFFFFFFFF04FFFFFFFF0CFFFFFFFF0C520000000C210000000C510000000C530000000A0C1300000004000000000CFFFFFFFF110D06636F656467650CFFFFFFFF04FFFFFFFF0CFFFFFFFF0C210000000C520000
310
000C220000000C3C0000000B0C1300000004000000000CFFFFFFFF110D06636F656467650CFFFFFFFF04FFFFFFFF0CFFFFFFFF0C240000000C2A0000000C210000000C3A0000000B0C2B00000004000000000CFFFFFFFF110D04656467650CFFFFFFFF04FFFFFFFF0CFFFFFFFF0C540000000600BAC114F9ACDB380C3D0000
310
0006AC38F14D7C13BF3F0C390000000C550000000B0707756E6B6E6F776E110D06636F656467650CFFFFFFFF04FFFFFFFF0CFFFFFFFF0C230000000C220000000C560000000C570000000A0C0C00000004000000000CFFFFFFFF110D04656467650CFFFFFFFF04FFFFFFFF0CFFFFFFFF0C580000000600000000000000000C
310
3D000000060A8542A15028A43F0C380000000C590000000B0707756E6B6E6F776E110D067665727465780CFFFFFFFF04FFFFFFFF0CFFFFFFFF0C2500000004000000000C5A000000110E0873747261696768740D0563757276650CFFFFFFFF04FFFFFFFF0CFFFFFFFF139F00000000C0444069000000000012400000000000
310
000000140000000000000000CDCCCCCCCC0C734000000000000000000A0600000000000000000A0699C7E3F1783CBE3F110D06636F656467650CFFFFFFFF04FFFFFFFF0CFFFFFFFF0C560000000C5B0000000C260000000C400000000B0C4F00000004000000000CFFFFFFFF110D04656467650CFFFFFFFF04FFFFFFFF0CFF
310
FFFFFF0C440000000600000000000000000C4100000006AC38F14D7C13BF3F0C3F0000000C5C0000000B0707756E6B6E6F776E110D067665727465780CFFFFFFFF04FFFFFFFF0CFFFFFFFF0C2700000004000000000C5D000000110E0873747261696768740D0563757276650CFFFFFFFF04FFFFFFFF0CFFFFFFFF139F0000
310
0000C04440130000000040444000000000000028C01400000000000000000000000000000000CDCCCCCCCC0C73400A0600000000000000000A060A8542A15028A43F110D06636F656467650CFFFFFFFF04FFFFFFFF0CFFFFFFFF0C510000000C280000000C5B0000000C5E0000000A0C1F00000004000000000CFFFFFFFF11
310
0D067665727465780CFFFFFFFF04FFFFFFFF0CFFFFFFFF0C4000000004000000000C5F000000110E0873747261696768740D0563757276650CFFFFFFFF04FFFFFFFF0CFFFFFFFF13A700000000001240130000000040444000000000000000001400000000000000000000000000000000CDCCCCCCCC0C73C00A0600000000
310
000000000A060A8542A15028A43F110D04656467650CFFFFFFFF04FFFFFFFF0CFFFFFFFF0C2D0000000600000000000000000C540000000699C7E3F1783CBE3F0C2A0000000C600000000B0707756E6B6E6F776E110D05706F696E740CFFFFFFFF04FFFFFFFF0CFFFFFFFF139F00000000C044401300000000404440000000
310
0000000000110D05706F696E740CFFFFFFFF04FFFFFFFF0CFFFFFFFF13A70000000000124013000000004044400000000000000000110E0E696E74656765725F6174747269620E0B6E616D655F6174747269620E0367656E0D066174747269620CFFFFFFFF04FFFFFFFF0CFFFFFFFF0C2F0000000C04000000150100000015
310
01000000150100000015020000000710524556495420454C454D454E5420494404991D0000110E0E696E74656765725F6174747269620E0B6E616D655F6174747269620E0367656E0D066174747269620CFFFFFFFF04FFFFFFFF0C610000000C300000000C0600000015010000001501000000150100000015020000000711
310
52455649542043415445474F5259204944040C77E1FF110E0E696E74656765725F6174747269620E0B6E616D655F6174747269620E0367656E0D066174747269620CFFFFFFFF04FFFFFFFF0C620000000C310000000C0B0000001501000000150100000015010000001502000000071452455649542053554243415445474F
310
525920494404FFFFFFFF110E0E696E74656765725F6174747269620E0B6E616D655F6174747269620E0367656E0D066174747269620CFFFFFFFF04FFFFFFFF0C630000000C320000000C12000000150100000015010000001501000000150200000007115245564954204D4154455249414C20494404421D0000110E0E696E
310
74656765725F6174747269620E0B6E616D655F6174747269620E0367656E0D066174747269620CFFFFFFFF04FFFFFFFF0C640000000C330000000C1E000000150100000015010000001501000000150200000007195245564954204D4154455249414C204F56455252494444454E0400000000110E0D737472696E675F6174
310
747269620E0B6E616D655F6174747269620E0367656E0D066174747269620CFFFFFFFF04FFFFFFFF0C650000000CFFFFFFFF0C340000001501000000150100000015010000001502000000070E5245564954204252455020544147072F33333661663163372D313731372D346463302D613232392D62663564653366653732
310
31642D30303030316439393A30110D046C6F6F700CFFFFFFFF04FFFFFFFF0CFFFFFFFF0CFFFFFFFF0C3F0000000C34000000110E05706C616E650D07737572666163650CFFFFFFFF04FFFFFFFF0CFFFFFFFF13A700000000001240690000000000124000000000000028C01400000000000000000000000000000000000000
310
000000F0BF140000000000000000CDCCCCCCCC0C734000000000000000000B0B0B0B0B110D06636F656467650CFFFFFFFF04FFFFFFFF0CFFFFFFFF0C360000000C430000000C370000000C530000000B0C1F00000004000000000CFFFFFFFF110D06636F656467650CFFFFFFFF04FFFFFFFF0CFFFFFFFF0C380000000C3700
310
00000C660000000C670000000A0C1300000004000000000CFFFFFFFF110D04656467650CFFFFFFFF04FFFFFFFF0CFFFFFFFF0C680000000600000000000000000C54000000060A8542A15028A43F0C510000000C690000000B0707756E6B6E6F776E110D067665727465780CFFFFFFFF04FFFFFFFF0CFFFFFFFF0C3A000000
310
04000000000C6A000000110E0873747261696768740D0563757276650CFFFFFFFF04FFFFFFFF0CFFFFFFFF13A7000000000012406800000000001240000000000000000014CDCCCCCCCC0C7340B0E5C033C99D033D00000000000000000A0600BAC114F9ACDB380A06AC38F14D7C13BF3F110D06636F656467650CFFFFFFFF
310
04FFFFFFFF0CFFFFFFFF0C660000000C3F0000000C3B0000000C570000000B0C4F00000004000000000CFFFFFFFF110D04656467650CFFFFFFFF04FFFFFFFF0CFFFFFFFF0C410000000600000000000000000C580000000699C7E3F1783CBE3F0C560000000C6B0000000B0707756E6B6E6F776E110D067665727465780CFF
310
FFFFFF04FFFFFFFF0CFFFFFFFF0C3C00000004000000000C6C000000110E0873747261696768740D0563757276650CFFFFFFFF04FFFFFFFF0CFFFFFFFF139F00000000C04440690000000000124000000000000028C01400000000000000000000000000000000CDCCCCCCCC0C73400A0600000000000000000A060A8542A1
310
5028A43F110D05706F696E740CFFFFFFFF04FFFFFFFF0CFFFFFFFF139F00000000C0444069000000000012400000000000000000110D06636F656467650CFFFFFFFF04FFFFFFFF0CFFFFFFFF0C3F0000000C660000000C430000000C5E0000000B0C4F00000004000000000CFFFFFFFF110E0873747261696768740D056375
310
7276650CFFFFFFFF04FFFFFFFF0CFFFFFFFF13A700000000001240130000000040444000000000000028C014CDCCCCCCCC0C7340000000000000000000000000000000000A0600000000000000000A06AC38F14D7C13BF3F110D05706F696E740CFFFFFFFF04FFFFFFFF0CFFFFFFFF139F00000000C0444013000000004044
310
4000000000000028C0110D04656467650CFFFFFFFF04FFFFFFFF0CFFFFFFFF0C6800000006B806AE816BE04ABC0C440000000699C7E3F1783CBE3F0C5B0000000C6D0000000B0707756E6B6E6F776E110D05706F696E740CFFFFFFFF04FFFFFFFF0CFFFFFFFF13A700000000001240130000000040444000000000000028C0
310
110E0873747261696768740D0563757276650CFFFFFFFF04FFFFFFFF0CFFFFFFFF13A70000000000124013000000004044400000000000000000140000000000000000CDCCCCCCCC0C73C000000000000000000A0600000000000000000A0699C7E3F1783CBE3F110E0E696E74656765725F6174747269620E0B6E616D655F
310
6174747269620E0367656E0D066174747269620CFFFFFFFF04FFFFFFFF0CFFFFFFFF0C4A0000000C0600000015010000001501000000150100000015020000000710524556495420454C454D454E5420494404991D0000110E0E696E74656765725F6174747269620E0B6E616D655F6174747269620E0367656E0D06617474
310
7269620CFFFFFFFF04FFFFFFFF0C6E0000000C4B0000000C0B0000001501000000150100000015010000001502000000071152455649542043415445474F5259204944040C77E1FF110E0E696E74656765725F6174747269620E0B6E616D655F6174747269620E0367656E0D066174747269620CFFFFFFFF04FFFFFFFF0C6F
310
0000000C4C0000000C120000001501000000150100000015010000001502000000071452455649542053554243415445474F525920494404FFFFFFFF110E0E696E74656765725F6174747269620E0B6E616D655F6174747269620E0367656E0D066174747269620CFFFFFFFF04FFFFFFFF0C700000000C4D0000000C1E0000
310
00150100000015010000001501000000150200000007115245564954204D4154455249414C20494404421D0000110E0E696E74656765725F6174747269620E0B6E616D655F6174747269620E0367656E0D066174747269620CFFFFFFFF04FFFFFFFF0C710000000C4E0000000C340000001501000000150100000015010000
310
00150200000007195245564954204D4154455249414C204F56455252494444454E0400000000110D06636F656467650CFFFFFFFF04FFFFFFFF0CFFFFFFFF0C5B0000000C560000000C520000000C670000000B0C4F00000004000000000CFFFFFFFF110D04656467650CFFFFFFFF04FFFFFFFF0CFFFFFFFF0C580000000600
310
000000000000000C6800000006AC38F14D7C13BF3F0C660000000C720000000B0707756E6B6E6F776E110D067665727465780CFFFFFFFF04FFFFFFFF0CFFFFFFFF0C5300000004000000000C73000000110E0873747261696768740D0563757276650CFFFFFFFF04FFFFFFFF0CFFFFFFFF13A7000000000012406900000000
310
00124000000000000028C01400000000000000000000000000000000CDCCCCCCCC0C73400A0600000000000000000A060A8542A15028A43F110D05706F696E740CFFFFFFFF04FFFFFFFF0CFFFFFFFF13A70000000000124069000000000012400000000000000000110E0873747261696768740D0563757276650CFFFFFFFF
310
04FFFFFFFF0CFFFFFFFF139F00000000C04440130000000040444000000000000028C0140000000000000000CDCCCCCCCC0C73C000000000000000000A0600000000000000000A0699C7E3F1783CBE3F110D05706F696E740CFFFFFFFF04FFFFFFFF0CFFFFFFFF139F00000000C04440690000000000124000000000000028
310
C0110E0873747261696768740D0563757276650CFFFFFFFF04FFFFFFFF0CFFFFFFFF13A700000000001240690000000000124000000000000028C0140000000000000000CDCCCCCCCC0C734000000000000000000A06B806AE816BE04ABC0A0699C7E3F1783CBE3F110E0E696E74656765725F6174747269620E0B6E616D65
310
5F6174747269620E0367656E0D066174747269620CFFFFFFFF04FFFFFFFF0CFFFFFFFF0C620000000C0B00000015010000001501000000150100000015020000000710524556495420454C454D454E5420494404991D0000110E0E696E74656765725F6174747269620E0B6E616D655F6174747269620E0367656E0D066174
310
747269620CFFFFFFFF04FFFFFFFF0C740000000C630000000C120000001501000000150100000015010000001502000000071152455649542043415445474F5259204944040C77E1FF110E0E696E74656765725F6174747269620E0B6E616D655F6174747269620E0367656E0D066174747269620CFFFFFFFF04FFFFFFFF0C
310
750000000C640000000C1E0000001501000000150100000015010000001502000000071452455649542053554243415445474F525920494404FFFFFFFF110E0E696E74656765725F6174747269620E0B6E616D655F6174747269620E0367656E0D066174747269620CFFFFFFFF04FFFFFFFF0C760000000C650000000C3400
310
0000150100000015010000001501000000150200000007115245564954204D4154455249414C20494404421D0000110E0873747261696768740D0563757276650CFFFFFFFF04FFFFFFFF0CFFFFFFFF139F00000000C04440690000000000124000000000000028C014CDCCCCCCCC0C73C0B0E5C033C99D03BD000000000000
310
00000A0600000000000000000A06AC38F14D7C13BF3F110D05706F696E740CFFFFFFFF04FFFFFFFF0CFFFFFFFF13A700000000001240680000000000124000000000000028C0110E0E696E74656765725F6174747269620E0B6E616D655F6174747269620E0367656E0D066174747269620CFFFFFFFF04FFFFFFFF0CFFFFFF
310
FF0C6F0000000C1200000015010000001501000000150100000015020000000710524556495420454C454D454E5420494404991D0000110E0E696E74656765725F6174747269620E0B6E616D655F6174747269620E0367656E0D066174747269620CFFFFFFFF04FFFFFFFF0C770000000C700000000C1E0000001501000000
310
150100000015010000001502000000071152455649542043415445474F5259204944040C77E1FF110E0E696E74656765725F6174747269620E0B6E616D655F6174747269620E0367656E0D066174747269620CFFFFFFFF04FFFFFFFF0C780000000C710000000C340000001501000000150100000015010000001502000000
310
071452455649542053554243415445474F525920494404FFFFFFFF110E0E696E74656765725F6174747269620E0B6E616D655F6174747269620E0367656E0D066174747269620CFFFFFFFF04FFFFFFFF0CFFFFFFFF0C750000000C1E00000015010000001501000000150100000015020000000710524556495420454C454D
310
454E5420494404991D0000110E0E696E74656765725F6174747269620E0B6E616D655F6174747269620E0367656E0D066174747269620CFFFFFFFF04FFFFFFFF0C790000000C760000000C340000001501000000150100000015010000001502000000071152455649542043415445474F5259204944040C77E1FF110E0E69
310
6E74656765725F6174747269620E0B6E616D655F6174747269620E0367656E0D066174747269620CFFFFFFFF04FFFFFFFF0CFFFFFFFF0C780000000C3400000015010000001501000000150100000015020000000710524556495420454C454D454E5420494404991D0000110E03456E640E026F660E0341534D0D04646174
310
61
  0
ENDSEC
  0
EOF
